Band:Rage Against The Machine
Song:Mindset`s A Threat
Tabbed By: JP Fernandez
s s s s s s s s s s s s s s s s riff a
G---------------------------------------------------|
D---7--7--7--7--7--7--7--7--7--7--7--7--7--7--7--7--|
A---------------------------------------------------|
E---------------------------------------------------|

s s s s s s s s s s s s s s s s riff b
G---------------------------------------------------|
D---------------------------------------------------|
A---------------------------------------------------|
E---5--5--5--5--5--5--5--5--5--5--5--5--5--5--5--5--|

h h e e e q e e e W e e e e riff c
G---------------r-----------5----r-----------|
D---------------e-----5--7-------e-----------|
A---------5--6--s--7-------------s-----------|
E---5--8--------t--------------5 --0--3--0--|

e e w Q e e e riff d
G---------r--r-----------|
D---------e--e-----------|
A---------s--s-----------|
E---5--5--t--t--0--3--0--|

e e e e q e e e e e e e e e e riff e
G---------------r-----------------r--------------|
D---------------e-----------------e--------------|
A---------------s-----------------s--------------|
E---5--5--5--5--t--5--5--5--5--5--t--5--5--5--5--|

h h e e e q e e e riff f
G---------------r-----------5--|
D---------------e-----5--7-----|
A---------5--6--s--7-----------|
E---5--8--------t--------------|
e e w q e e e e riff g
G--------r--r--------------|
D--------e--e--------------|
A--------s--s--------------|
E--5--5--t--t--5--5--5--5--|
Order-O-Riffs
riff a x 2
riff b x 4
riff c x 4
riff d x 4
riff c x 2
riff d x 8
riff c x 4
riff e x 12
rest 4 measures
riff c x 4
riff d x 8
riff f x 3
riff g x 1

Rhythm:
w = whole note W = dotted whole
h = half note H = dotted half
q = quarter note Q = dotted quarter
e = eighth note E = dotted eighth
s = sixteenth note S = dotted sixteenth
t = 32nd note T = dotted 32nd
x = 64th note X = dotted 64th
^ = triplet




Ваше мнение



Капча