Rage Against the Machine - Maggie's Farm.
Tabbed by Matt Schreiber - [email protected]

Rage Against the Machine
Maggie’s Farm
transcribes by schreibes
great song and simple to play
its in dropped b tuning- a new look from morello. just tune the e string to sound an octave
lower than the second fret on the a string
intro: play twice - last 3 notes in ( ) play only first time - do not let notes ring
e:---12-----12------12-----12----------10------10---------10---------(10)-------------------------
B:-------12-----12------12------12--------12------12---------(12)----------(12)------------------
G:----------------------------------------------------------------------------------------------
D:----------------------------------------------------------------------------------------------
A:----------------------------------------------------------------------------------------------
B:----------------------------------------------------------------------------------------------
MAIN RIFF
e:--------- -------------------------------------------------------------------------------
B:--------- --------------------------------------------------------------------------------
G:--------- ---------------------------------------------------------------------------
D:--- 9 -- --------------------------------------------------------------------------------
A:--- 9 -- - 2---2---5p2---2---2---------2---5p2----2------------------------------
B:--- 0---- - 0---0----------0---0---------0-----------0----5 b ^----------------------
repeat riff 4x
e:----------------------------------------------------------------------------------------------
B:----------------------------------------------------------------------------------------------
G:----------------------------------------------------------------------------------------------
D:--------------------------------------0---------------------------------------------------
A:----2--2---5p2---2--2------0---2------2---0-----------------------------------------
B:----0--0----------0--0---------------------------5---0----------------------------------------------
VERSE: Repeat main riff minus fill at end while palm muting
PRE CHORUS 4x THEN STRUM
e:--------------------------------------------------------------------------------------------
B:----------------------------------------------------------------------------------------------
G:----------------------------------------------------------------------------------------------
D:----------------------------------------------------------------------------------------------
A:----2---2---x---x---2---x---x----2-----x---x---x---x------------------12---------7----------
B:----0---0---x---x---0---x---x----0-----x---x---x---x------------------10---------5--------




Ваше мнение



Капча