Solo
e--------------------b17--------------------------
B-b14-b14-b14-b17---------------------------------
G-----------------14-------14-13---13-14-13-------
D-------------------------------------------14----
A-------------------------------------------------
E-------------------------------------------------
e----------------------16-17-19-17-16-----------------------
B----------14-15-17/19----------------19-17-16--------------
G-13-14-16-------------------------------------19-17-16-b16-
D-----------------------------------------------------------
A-----------------------------------------------------------
E-----------------------------------------------------------
e----------17h19h21----------------------------------------------17-
B-17h19h21----------17h19h21----------------------------17h19h21----
G----------------------------18h19h21----------18h19h21-------------
D-------------------------------------18h19h21----------------------
A-------------------------------------------------------------------
E-------------------------------------------------------------------
e----------17---------17h19h21----------------------------------------------17------------17h19h21p19p17-----
B-17h19h21----17h19h21----------17h19h21----------------------------17h19h21-----17h19h21----------------b21-
G----------------------------------------18h19h21----------18h19h21------------------------------------------
D-------------------------------------------------18h19h21---------------------------------------------------
A------------------------------------------------------------------------------------------------------------
E------------------------------------------------------------------------------------------------------------
e------------------------------------------------------------------
B-------------------10------------------------------------------10-
G----------11------------11----------------11----------------------
D-----11----------------------------11------------11-------11------
A-9-9----9----9-9-9----9------9-9-9----9-9----9-9----9-9-9----9----
E------------------------------------------------------------------
e-------------------------------------------
B------------------10-----------------------
G---11--------11--------11---11---10-----b9-
D--------11---------------------------------
A-9----9----9----9----9----9----8----8-7----
E-------------------------------------------
e-----------------------------------------------------------------------------------
B-------------------------14---------------------------------------15---------------
G-------------14----------------14---------------------16----------------16---------
D-------14----------------------------14---------16----------------------------16---
A-12-12----12----12-12-12----12----12------14-14----14----14-14-14----14----14------
E-----------------------------------------------------------------------------------
e----------------------------------
B-------------------------18-------
G-------------18----------------18-
D-------18-------------------------
A-16-16----16----16-16-16----16----
E----------------------------------
This might not be quite right.
But there is enough here for you to get it right yourself




Ваше мнение



Капча