t. See http://www.olga.net/faq/ for more information. #
From: "Francisco Cordeiro"
Subject: r/rage_against_the_machine/killing_in_the_name.tab
Date: Fri, 17 Mar 2000 00:48:54 +0800
Song: "Killing In The Name" by Rage Against The Machine
Album: Rage Against The Machine
Tabbed By: Francisco Cordeiro
h =3D hammer on
p =3D pull off
s =3D slide
pm =3D palm mute
Tuning:
e--------
B-------
G------
D------
A-------
D--------
INTRO
----------------------------------
----------------------------------
----------------------------------
---7--------7--------7--------7---
---5--------5--------5--------5---
----------------------------------
FIG1
---------------------------------------------------------
---------------------------------------------------------
-----------------------------------------------11---12---
--------------------------------11h12--------------------
---0--------0--------0-----------------------------------
---0--------0--------0-----------------------------------
FIG2
------------------------------------------------------------
------------------------------------------------------------
------------------------------------------------------------
-----------------------------------------------12b(14)r12---
---0--------0--------0----------11h12-----------------------
---0--------0--------0--------------------------------------
FIG3
------------------------------------------------
------------------------------------------------
------------------------------------------------
-------------------------------8------8-----8---
---0--------0--------0---------6------6-----6---
---0--------0--------0--------------------------
FIG4
----------------------------------------------------------------------
----------------------------------------------------------------------
----------------------------------------------------------------------
-----------------------x---3h4----------------------------------------
---0---------3h5-------------------------7------------------2s3---2---
---0-----------------------------------------------0--------2s3---2---
FIG5
"...some of those that were forces..."
(---------pm----------) (-----------pm------------)
---------------------------------------------------------------------
---------------------------------------------------------------------
---------------------------------------------------------------------
-----------------------x---3h4---------------------------------------
-------------3h5-------------------------7-----------------2s3---2---
---0-----------------------------------------------0-------2s3---2---
FIG6
(------pm-------) (---------pm----------)
-----------------------------------------------------------
-----------------------------------------------------------
-----------------------------------------5---6---7---10~---
-----------------x---3h4-----5---6---7---------------------
---------3h5-----------------------------------------------
---0-------------------------------------------------------
FIG7
-------------------------------------------------------------------------=
-------------------------------------------------------------------------=
-----------------x---4-------------------x---3-------------------x---2---=
-------------------------------------------------------------------------=
---0-----3h5---------------0-----3h5---------------0-----3h5-------------=
---0-----------------------0-----------------------0---------------------=
FIG8
"...killing in the name of!..."
-------------------------------------
-------------------------------------
-------------------------------------
-------------------------------------
---0--------3s2---3s2---2--------0---
---0--------3s2---3s2---2--------0---
FIG9
(-------------pm--------------)
-----------------------------------
-----------------------------------
-----------------------------------
-----------------------------------
---2---2---2---2---2---2---2---2---
---2---2---2---2---2---2---2---2---
FIG10
"...and now you do what they told ya..."
-----------------
-----------------
-----------------
---7---7-----7---
---5---5-----5---
-----------------
FIG11
---------------------------------------------------------------
---------------------------------------------------------------
---------------------------------------------------------------
---7---7---x---x---7---x---x---x---x---x---x---x---x---x---x---
---5---5---x---x---5---x---x---x---x---x---x---x---x---x---x---
---------------------------------------------------------------
FIG12
---------------------------------------------------------------
---------------------------------------------------------------
---------------------------------------------------------------
---7---7---x---x---7---x---x---7-7-7-7-7-7-7-7-7-7-7-7-7-7-7---
---5---5---x---x---5---x---x---5-5-5-5-5-5-5-5-5-5-5-5-5-5-5---
---------------------------------------------------------------
FIG13
"...those that died..." / "...fuck you i won't do what you tell me!..."
------------------------------------------------------------
------------------------------------------------------------
------------------------------------------------------------
---7---7---x---x---7---7---x---7---x--------------------3---
---5---5---x---x---5---5---x---5---x--------3-----5-----3---
--------------------------------------------3-----5---------
SOLO
Hit each note the number of times u think is right
--------------------------------------------
---12-----9-----7-----------------------9---
----------------------9-----6-----4---------
--------------------------------------------
--------------------------------------------
--------------------------------------------
This solo requires a whammy pedal to achieve the right effect
--------------------------------------------
---12-----9-----7---------------------------
----------------------9-----6-----4-----6---
--------------------------------------------
--------------------------------------------
--------------------------------------------
----------------------------------------------
---9h12p9h12p9h12p9-----9h12p9h12p9h12p9h12---
----------------------------------------------
----------------------------------------------
----------------------------------------------
----------------------------------------------
---------------------------------------
---7h9p7h9p7h9p7-----7h9p7h9p7h9p7h9---
---------------------------------------
---------------------------------------
---------------------------------------
---------------------------------------
----------------------
---14-----16----------
-----------------12---
----------------------
----------------------
----------------------
FIG14
"...fuck you i want do what you tell me..."
Hit each chord the number of times you feel is right
-----------------------------------------------------
-----------------------------------------------------
---7-----9----10----12-----14-----15-----17-----19---
---x-----x-----x-----x------x------x------x------x---
---5-----7-----8----10-----12-----13-----15-----17---
---0-----0-----0-----0------0------0------0------0---
FIG15
"...mothafucka!..."
--------------------------------------------------------------
--------------------------------------------------------------
---10--10---x---x--10--10---x--10---x--10----10--10--10--10---
---10--10---x---x--10--10---x--10---x--10----10--10--10--10---
----8---8---x---x---8---8---x---8---x---8-----8---8---8---8---
--------------------------------------------------------------
END
--------------------------------------------------------------------
--------------------------------------------------------------------
--------------------------------------------------------------------
---7-7-7-7-7-7-7-7-7-7-7-7-7-7-7--------------------8-----8-----8---
---5-5-5-5-5-5-5-5-5-5-5-5-5-5-5---0-----0-----0----6-----6-----6---
-----------------------------------0-----0-----0--------------------
This took a lot of time for me to tab and mostly to organize..
hope you enjoy!

PS: If you have any comments regarding this tab
email me at [email protected]




Ваше мнение



Капча