I'm positive that the real version is an octave higher, but here is an easier version
anyway which practically sounds the same. RAGE RULES!!!

Solo - First pt.

e|--8---5---3---1-----------5 }
B|------------------3---1---- }
G|----7---5---0-------------- } x2 (Second time end with
D|----------------3---0------ } 3rd fret on first
A|------------------------3-- } string)
E|--------------------------- }

Solo - Second pt.

|--1/8--88888--1/8--88888--1/3--33333--1/3--33333
|------------------------------------------------
|------------------------------------------------
|------------------------------------------------
|------------------------------------------------
|------------------------------------------------

Solo - End

|--1/12--1/10--1/4
|-----------------
|-----------------
|-----------------
|-----------------
|-----------------




Ваше мнение



Капча