Title: Killing In The Name Of
Band: Rage Against The Machine
OK!!! This is my first Tab...EVER..so, don't yell at me!!
Tune guitar to drop D (D,A,D,G,B,E)
Intro/part 1
[----------------------------------------------------------------------------]
[----------------------------------------------------------------------------]
[----------------------------------------------------------------------------]
[----------------------------------------------------------------------------]
[------------6--6--6----------6--6--6-------------6--6--6----------6--6--6---]
[---0--0--0----------0--0--0------------0--0--0-----------0--0--0------------]
pm......................................................................
Intro/part 2 x3
[-------------------------------|---------------------------------------]
[-------------------------------|---------------------------------------]
[-----------------------11h12---|----------------------12h14p12---------]
[---------------11h12-----------|-------------11h12---------------------]
[-------------------------------|---------------------------------------]
[---0----0-0--------------------|-0----0-0------------------------------]
pm............. pm..........
Repeat Intro/part 1
Main Riff/part1 x4
[----------------------------------------------------------------------]
[----------------------------------------------------------------------]
[----------------------------------------------------------------------]
[-----------------------3h4--0-----------------------------------------]
[------------3h5------------------------0--23/2--0--------------------]
[----0----------------------------------0--23/2--0--------------------]
Main Riff/part2 x3
[----------------------------------------------------------------------]
[----------------------------------------------------------------------]
[----------------------------------------------------------------------]
[----------------9----------------8---------------7----023/23--------]
[---------3h5---------------3h5--------------3h5------0023/23--------]
[---0-------------------0----------------0-----------00023/23--------]
ok, the solo and other stuff is yes....and i don't have 4 hours to type it out.
thats all for now! have fun! ROCK ON!!!!
_________________________________________________________________
questions, comments......email [email protected]




Ваше мнение



Капча