Song: Kick Out the Jams
Artist: Rage Against the Machine
Album: Renegade
Tabbed by: Mark Pasierb
E-mail: [email protected]
Standard Tuning
(Fig 1)
G | |-----------|
D | |-----------|
A | |-----------|
E | |--5-5-5-7--|
(Fig 2)
G | |-----------------|
D | |------5-7-7-7-5--|
A | |--7-7------------|
E | |-----------------|
(Fig 3)
G | |----------------------------------------|
D | |------5-12-12-12-12------5-14-14-14-14--|
A | |--7-7----------------7-7----------------|
E | |----------------------------------------|
(Fig 4)
G | |------------------|
D | |------------------|
A | |--5-7-5-5-5-5-5---|
E | |------------------|
(Fig 5)
G | |-------------------------|
D | |-------------------------|
A | |--7-7-7-7-7-7-7-7-7-7-7--|
E | |-------------------------|
Song Structure:
Fig 1 x1
Fig 2 x12
Fig 3 x2
Fig 1 x1
Fig 4 x1
Fig 2 x12
Fig 3 x2
Fig 1 x1
Fig 4 x1
Fig 2 x8
Fig 3 x4
Fig 2 x10
Fig 1 x1
Fig 4 x1
Fig 5 x1




Ваше мнение



Капча