Song: In My Eyes
Artist: Rage Against the Machine
Album: Renegades
Tabbed by: Nate Beauvais ([email protected])
http://www.basstabarchive.com/

Pretty cool song originaly done by Minor Threat.

Standard Tunning

Intro
G|-----------------------------------------
D|-----------------------------------------
A|7~~----7-0-5-0-5-6-7-7-7-7-7-7-0-5-0-5-6-
E|-----------------------------------------

G|-----------9-----------------------------
D|-------9---------------------------------
A|---7-------------------------------------
E|0----------------------------------------
For the ending of the Intro Timmy just does improve, but i something to
this effect.

Verse
G|-------------------------------
D|-------------------------------
A|-----3----6---8-8--------------
E|-------5----6-------3-3-3-3-3-3
Just guitar at first

Chorus A
G|-----------------------------------------------------
D|-----------------------------------------------------
A|----5-5-5-5-5-----5-5-5-5-5--------------------------
E|7-7-----------7-7-----------5-5-5-5-5-5-5-7-7-7-7-7-7

Chorus B
G|-----------------------------------------------------
D|-----------------------------------------------------
A|----------------5-5-5-----------------5-5-5----------
E|0-0-0-0-0-0-0-0-------0-0-0-0-0-0-0-0----------------




Ваше мнение



Капча