I'm Housing - Rage Against the Machine
-----------------------------------------------------------------------------
Tabbed by:buried by the machine
Email:[email protected]

This is the first tab i've done but i think i did good. All other tabs for this
song really sucked so i got fed up and decided to tab it myself and give every1
a break.

I dont have any fancy effects pedals or anything just a cheap second hand guitar
with no whammy bar and a dodgy jack socket so i'm sorry i cant comment on effects used.

I dont think that this is 100% correct but its a hell of a lot better than other
tabs i've seen.

Not sure about the solo so didn't include but i'll get round to it soon.

Intro
e|---------------------------------------------------------------------------
B|---------------------------------------------------------------------------
G|---------------------------------------------------------------------------
D|--5/-2/-1-0----------------------------------------------------------------
A|------------2/-1-0---------------------------------------------------------
E|0------------------3-4-0---------------------------------------------------
Repeat several times
e|---------------------------------------------------------------------------
B|---------------------------------------------------------------------------
G|---------------------------------------------------------------------------
D|---------------------------------------------------------------------------
A|7-10-7-7-7-10--------------------------------------------------------------
E|---------------------------------------------------------------------------

e|---------------------------------------------------------------------------
B|---------------------------------------------------------------------------
G|---------------------------------------------------------------------------
D|---------------------------------------------------------------------------
A|--------------------[--------*4---------]----------------------------------
E|0-0--0-0--0-0--0-0---0-0-0-0-0-0-0-0-2-3-----------------------------------
Repeat several times
e|---------------------------------------------------------------------------
B|---------------------------------------------------------------------------
G|---------------------------------------------------------------------------
D|---------------------------------------------------------------------------
A|7-7/0-2/5-5/2--------------------------------------------------------------
E|--------------5/3----------------------------------------------------------

The pattern above is repeated all the way through the song except for the solo
and some mad random of bits of effects.
===============================================================================




Ваше мнение



Капча