Song: Im housin'
Band: Rage Against The Machine
Album: Renegades
This IS 100% correct. Trust me...

The Bass Line For the verse:

G--------------------------------|
D--------------------------------|
A------7h10--7--6--5--2--1-------|
E--0------------------------3h5--|

Guitar on Verse:

E--------------------|
B--------------------|
G-----0-----------0--|
D--2-----2--2--2-----|
A--------------------|
E--------------------|

Pre Chorus Bass:

G------- ------------------------------|
D------- ------------------------------|
A------- x4 ------------------------------|
E--0-0-- --12--0--12--0--12--0--0--15--|

Pre Chorus Guitar:

E------- ------------------------------------|
B------- ------------------------------------|
G------- ------------------------------------|
D--2-2-- x4 ------------------------------------|
A--2-2-- ------------------------------------|
E--0-0-- --12--0--12--0--12--0--0--0--0--15--|

Chorus Bass:

G--------------------------|
D--2--2-----0--------------|
A--------0-----2--0--------|
E--------------------3--0--|

Chorus Guitar:

E-----------------------------|
B-----------------------------|
G-----------------------------|
D--2--2--------0--------------|
A--------0--2-----2--0--------|
E-----------------------3--0--|

Interlude Bass:

G--------------------|
D--------------------|
A--------------------|
E--0-0--0-0--0-0--3--|

Interlude Guitar:

E--
B--
G--hes just pissing
D--with some phaser
A-- effects
E--

Solo Bass:

G------------------------------|
D------------------------------|
A------------------------------|
E--12--0--12--0--12--0--0--15--|

Solo Guitar:

E----------------------|--------------------------|----------------------------------|--13h15--13--13h15--13--|
B--12--10--10------10--|--------------------------|----------------------------------|------------------------|
G--------------12------|--9------9--12--9------9--|----------------------------------|------------------------|
D----------------------|-----12------------12-----|----------------------------------|------------------------|
A----------------------|--------------------------|----------------------------------|------------------------|
E----------------------|--------------------------|--12-12-12--0--12-12-12--0--12-0--|------------------------|

E--15h17--15h17--15--|
B--------------------|
G--------------------|
D--------------------|
A--------------------|
E--------------------|

and thats th lot. tahnkyou. email me with comments, changes deaththreats... [email protected]




Ваше мнение



Капча