Band: Rage Against The Machine (0riginally done by Cypress Hill)
Song: How I Could Just Kill A Man
Album: Renegades
Tuning: DADGBE
Tabbed by: Steve Q

I think this is one of the best songs off of Renegades if not the best.
This is the way I play it.

Verse (With wah pedal)

E|----------------------------------------------------------------------|
B|----------------------------------------------------------------------|
G|----------------------------------------------------------------------|
D|-----------------------------3----------------------------------------|
A|-3--5--3--5-----3--5--5---3-------3--5--3--5----3--5—-5--3---5--------|
D|----------------------------------------------------------------------|


Chorus

E|-------------------------------------------------------|
B|-------------------------------------------------------|
G|-------------------------------------------------------|
D|----5--3---3---5--3----0-0-0-0-0---x-x—-3-5-3----------|
A|--3-5—-3---3---5--3----0-0-0-0-0---x-x—-3-5-3----------|
D|--0--------3---5-------0-0-0-0-0---x-x—-3-5-3----------|


Interlude (made up of these to notes played very quickly so I can't tab it)

E|------------|
B|------------|
G|------------| lots of times (with wah pedal)
D|--5-3-5-----|
A|------------|
D|------------|

Bridge and Outro (slight palm mute)

E|-------------------------|
B|-------------------------|
G|-------------------------|
D|--0-0-0-0-0--------------|
A|--0-0-0-0-0--------------|
D|--0-0-0-0-0--------------|

Please rate/comment, any questions e-mail me at [email protected]




Ваше мнение



Капча