Author/Artist: Rage Agianst The Machine
Title: Housin'
Album: Renegades
Transcribed by: Zach
Email: [email protected]

This is my first attempt at writing tab, so if I screwed up
Im sorry. Heres some notes you should know bout the
song.

First off, most of the songs on the new album have
Tom Morrellos guitar tuned down on the 4th 5th and 6th
strings. If you play without doing this, It will be a
couple of Octaves higher but should still sound okay.

The Solo is basicly him sliding on the 3rd string
back and forth from the 7th fret to the 9th while
tremlo picking like mad. Throw in a few effects,
then it switches to open Wah-Wah, and finally
end it with a few blues notes bent up.

------------------------------------------------------------------------------
------------------------------------------------------------------------------
--3----3----3----3----3----5--------------------------------------------------
------------------------------------------------------------------------------
------------------------------------------------------------------------------
------------------------------------------------------------------------------
Wah or just bend the notes.

------------------------------------------------------------------------------
------------------------------------------------------------------------------
------------------------------------------------------------------------------
------------------------------------------------------------------------------
------5-5---------------------------------------------------------------------
------5-5---------------------------------------------------------------------
Pre-pre chorus (Cause Im Housin'...)

------------------------------------------------------------------------------
------------------------------------------------------------------------------
------------------------------------------------------------------------------
----------------------------5-------------------------------------------------
----7--5--7--5--7--5--7--5----------------------------------------------------
------------------------------------------------------------------------------
Pre Chorus

------------------------------------------------------------------------------
------------------------------------------------------------------------------
------------------------------------------------------------------------------
------------------------------------------------------------------------------
------7--7--5--7-----7--------------------------------------------------------
------------------5-----7--5--3-----------------------------------------------
Chorus (relate to the matter as I drop the bomb)




Ваше мнение



Капча