t. See http://www.olga.net/faq/ for more information. #
Date: Tue, 11 Apr 2000 10:31:50 -0400
From: Mike Hardie
Subject: r/rage_against_the_machine/guerrilla_radio.tab
SONG: Guerrilla Radio
ARTIST: Rage Against the Machine
This is my first attempt at tabbing a song. Corrections are
welcome.
Main Riff:
(repeat as necessary)
E --------------------
B ---------------2-4--
G ---------------2-4--
D -2-4-4-2-4-2-4-2-4--
A -2-4-4-2-4-2-4-0-2--
E -0-2-2-0-2-0-2------
then:
E --------------------
B --2-----------------
G --2-----------------
D --2-4-4-2-6-4-------
A --0-4-4-2-6-4-------
E ----2-2-0-4-2-------
During the verses, there's a little bass run:
A --0-0-2-2-3-3-------
The bit that sounds rather like a harmonica:
E --------------------
B --------------------
G ------------2-------
D --4-2-4-2-4---------
A --------------------
E --------------------
Then the clean guitar comes in:
E --------------------
B --------------------
G --4-2-4-4b6r4-2-----
D ----------------4---
A --------------------
E --------------------
And then another short harmonica-sounding bit. (This is a
guess.)
E -0-0-0-0------------
B -4-3-2-1------------
G -5-4-3-2------------
D -4-3-2-1------------
A -0-0-0-0------------
E --------------------
And finally, repeated over "oh, hell, can't stop
us now":
E -------------------
B --------11---------
G --------11---------
D -2-4-2--11---------
A -2-4-2---9---------
E -0-2-0-------------
I think that's about it.
Cheers,
Mike Hardie
[email protected]




Ваше мнение



Капча