Song: Guerrilla Radio (bass)
Album: Battle of Los Angles
Tabbed by: Andrew Hassel
My email: [email protected]}
This song is really quite simple. First there is the little guitar riff
and you come in with

G/-------------------------------------------------
D/-----4-4-4-4-4-4-4-4-4-4-4-(and so forth)--------
A/-------------------------------------------------
E/-------------------------------------------------

Then you join w/ the guitar riff in:

G/-------------------------------------------------
D/-------------------------------------------------
A/-------------------------------------------------
E/----0-2-2-0-2-0-2-5-7----------------------------

Then the other part is:

G/-------------------------------------------------
D/------7-7---9-9---10-10--------------------------
A/-------------------------------------------------
E/--------------------------2----------------------

The bridge is the same as the beginning

And the guitar solo is the little

E/----0-2-2-0-2-0-2-5-7--------------------------

thing.

At the end it goes like this

G/------------------------------------------------
D/--------4-----4------4--------------------------
A/------------------------------------------------
E/-----2------2----2------------------------------

And it?s over!! Mail me with any suggestions or requests.




Ваше мнение



Капча