t. See http://www.olga.net/faq/ for more information. #

From: "-\[x\]static x\[x\]-"
Subject: r/rage_against_the_machine/guerilla_radio.tab
Date: Sun, 13 Feb 2000 02:54:35 GMT

Rage Against the Machine
Guerilla Radio
CD: Battle of Los Angeles
tabbed by mark little ([email protected])
send any corrections or comments to [email protected]
**drop D tuning**
tab key:
h-hammer on
p-pull off
~-vibrato
^-bend
/-slide up
\-slide down
r-release
x-dead note/palm mute
Intro
e------------------------------------------
b------------------------------------------
g------------------------------------------ x15
d---2---4--4--4--2--4--7--9-------------
a---2---4--4--4--2--4--7--9-------------
D---2---4--4--4--2--4--7--9-------------
after playing that do this:
e-----------------------------------
b-----------------------------------
g---3--000000---2--000000-------
d------------------------------------
a------------------------------------
D-----------------------------------

Verse:

for the verse, turn on you wah pedal and slide your left and right hands up
and down the
strings while opening and closing wah, mess around w/ it, u'll get it.
e--/-\-/-\-/-\-/-\-/-\-/-\-/-\-/-\-/-\--
b--/-\-/-\-/-\-/-\-/-\-/-\-/-\-/-\-/-\---
g--/-\-/-\-/-\-/-\-/-\-/-\-/-\-/-\-/-\---
d--/-\-/-\-/-\-/-\-/-\-/-\-/-\-/-\-/-\---
a--/-\-/-\-/-\-/-\-/-\-/-\-/-\-/-\-/-\---
D--/-\-/-\-/-\-/-\-/-\-/-\-/-\-/-\-/-\---

Solo:
Tom was on mtv once and showed how he did the solo. he used some pedal and
his
toggle switch. well, all i have is a wah pedal and no toggle switch on my
guitar, so here's
as close as i can get, so try it out even if u dont have a wah:
e----15--13--15--13--15--18--
b--------------------------------
g--------------------------------
d-------------------------------- x3
a--------------------------------
D-------------------------------
after playing that 3 times do this:
open and close wah and hit (dont pick) the strings, u'll get it.
e--xxxxxxxxxxxxxxxxxxxxxxxxxx--
b--xxxxxxxxxxxxxxxxxxxxxxxxxx--
g--xxxxxxxxxxxxxxxxxxxxxxxxxx--
d------------------------------
a------------------------------
D-----------------------------
e--------------------------
b-prebend--^12h13r12p11-10- i dont think this part is ight, but close.
g--------------------------
d--9--7--9----------------- x3
a--9--7--9-----------------
D--9--7--9-----------------
then
e------------20------------
b----------------18--------
g---------------------------
d--9--7--------------------
a--9--7--------------------
D--9--7-------------------
End (part where zach is shouting "all hell, cant stop us now!"):
play this kinda fast, dont worry, u'll get the hang of it.
e---------------------------------------------------
b---------------------------------------------------
g---------------------------------------------------
d--2--4--2--4--7----2--4--2--4--9----xxxxxxxx-- x6
a--2--4--2--4--7----2--4--2--4--9----xxxxxxxx--
D--2--4--2--4--7----2--4--2--4--9----xxxxxxxx--

===============================================================
that's it, please send corrections to [email protected], or
if u need
the bass tab. i'll probably have that on olga soon. if u know where i can
find some dope or
static-x tabs, please tell me!!!!!!!!!!!!

______________________________________________________
Get Your Private, Free Email at http://www.hotmail.com




Ваше мнение



Капча