Rage forever the best song from them live !!!!!!
inrto
with phaser
e-------------------------------------------------|
b-------------------------------------------------|
g-------------------------------------------------|
d----4-4----4----4--------------------------------|
a----4-4----4----4---0--2-------------------------|
E-o--2-2--0-2--0-2--------------------------------|
chorus with phaser
e-------------------------------------------------|
b-------------------------------------------------|
g-------------------------------------------------|
d-x--4- 4--x--4--x--4--7--9-----------------------|
a-x--4- 4--x--4--x--4--7--9-----------------------|
E-0--2--2--0--2--0--2--5--7-----------------------|
solo with phaser
e---------------------x-x------------------------------------------------------|
b---------------------x-x------------------------------------------------------|
g-----------------2---x-x------------------10--12--12--10---------------12--10-|
d--4--2--4--2--4------x-x--12--10--12--10------------------10---12--10---------|
a---------------------x-x------------------------------------------------------|
E---------------------x-x------------------------------------------------------|
outro without phaser
e-------------x-x-x-------------------------------------|
b-------------x-x-x-------------------------------------|
g-------------x-x-x-------------------------------------|
d---------4---x-x-x-------------------------------------|a million times
a-------------x-x-x-------------------------------------|
E--0--2-------x-x-x-------------------------------------|
all right have you any questions :[email protected]




Ваше мнение



Капча