Rage Against The Machine - Guerrilla Radio

Tabbed By Stephen Pang ([email protected])

Intro
G|-----------------|
D|-----------------|
A|-----------------|
E|-2-2-2-2-2-2-2-2-|

Chorus
G|-------------------|
D|-------------------|
A|---------------0-2-|
E|-0-2-2-0-2-0-2-----|

G|-2------1---------|
D|------------------|
A|------------------|
E|---2--0---2--0-2--|
Verse
G|--2-2--4-4--5-5------|
D|-----------------4--|
A|---------------------|
E|---------------------|

Verse Variation
G|--------------2-2--4-4--5-5------|
D|-4-------4-4-----------------4--|
A|---2-0---------------------------|
E|-------2-------------------------|

Chorus Variation
G|-----------------------|
D|---------------4-4-4-4-|
A|-----------------------|
E|-0-2-2-0-2-0-2---------|

Outro
G|----------|
D|--------4-|
A|----------|
E|-0-2--0---|




Ваше мнение



Капча