Rage Against the Machine
Fuck Tha Police
tabbed by Eric Koppel
[email protected]

Intro/Chorus
G----------------------------------|
D----------------------------------|
A----------------------------------|
E--0-4-----------0-4-----------0-4-| x2

Pre-Verse

G--9--7--6--4--3-2-0-|
D--------------------|
A--------------------|
E--------------------|

Verse
G----------------------------------|
D----------------------------------|
A----------------------------------|
E--0-4-----------0-4-----------0-4-| x3

Play Intro/Chrous then the Pre-Verse

Second Verse

G--------------------0----------------------|
D--------7----7--7-7-0------7----7--7-7-0/6-|
A--------7----7--7-7-------7----7--7-7------|
E--0-4------------------0-4-----------------|


Ваше мнение



Капча