Rage Against The Machine - Fist Full Of Steel

It's my first tablature so I don't know all the right terms (and i speak
french !)

(m=mute...)

harm. harm.
/---- /--------
e|----------------------------------------------------------------------------|
b|----------------------------------------------------------------------------|
g|----------------------------------------------------------------------------|
d|--2--4--4---x--x----2--4--4---7--3-----2--4--4---x--x----2--4--4---7--3-----|
a|--0--2--2---x--x----0--2--2---7--3-----0--2--2---x--x----0--2--2---7--3--3--|
E|--0--2--2---x--x----0--2--2------------0--2--2---x--x----0--2--2---------3--|
harm. harm.
/--- /--------
e|----------------------------------------------------------------------------|
b|----------------------------------------------------------------------------|
g|----------------------------------------------------------------------------|
d|--2--4--4---x--x----2--4--4---7--3-----2--4--4---x--x----2--4--4---3--m-----|
a|--0--2--2---x--x----0--2--2---7--3-----0--2--2---x--x----0--2--2---3--m--3--|
E|--0--2--2---x--x----0--2--2------------0--2--2---x--x----0--2--2------m--3--|

----->(x3)
N.B. : for the third time, d|--3--| and a|--3--| are replaced by a|--3--|
and E|--3--|(last note only!)

Between both riffs, there's a little sound played with a wah-wah pedal which
I don't have...

harm. harm.
/---- /--------
e|----------------------------------------------------------------------------|
b|----------------------------------------------------------------------------|
g|----------------------------------------------------------------------------|
d|--2--4--4---x--x----2--4--4---7--3-----2--4--4---x--x----2--4--4---7--3-----|
a|--0--2--2---x--x----0--2--2---7--3-----0--2--2---x--x----0--2--2---7--3--3--|
E|--0--2--2---x--x----0--2--2------------0--2--2---x--x----0--2--2---------3--|
harm. harm.
/--- /--------
e|----------------------------------------------------------------------------|
b|----------------------------------------------------------------------------|
g|----------------------------------------------------------------------------|
d|--2--4--4---x--x----2--4--4---7--3-----2--4--4---x--x----2--4--4---3--m-----|
a|--0--2--2---x--x----0--2--2---7--3-----0--2--2---x--x----0--2--2---3--m--3--|
E|--0--2--2---x--x----0--2--2------------0--2--2---x--x----0--2--2------m--3--|

----->(x2)

repeat 2 more times before the solo
Solo : I don't know !
Then,
e|---------|
b|---------|
g|---------|
d|-4-3-2---|
a|-------0-|
E|---------|
----->(x16)

e|--------------------------|
b|--------------------------|
g|--------------------------|
d|-2--4---7---4-3-2---4-3-2-|
a|-2--4---7---------0-------|
E|-0--2--~5~----------------|
------>(x4)

e|---------|
b|---------|
g|---------|
d|-4-3-2---|
a|-------0-|
E|---------|
----->(many times!.....just wait for the drum to start the other riff)

e|--------------------------|
b|--------------------------|
g|--------------------------|
d|-2--4---7---4-3-2---4-3-2-|
a|-2--4---7---------0-------|
E|-0--2--~5~----------------|
------>('til the end)

_____________________________
|*****************************|
|* *|
|* By Marc-Andrй Lalibertй *|
|* *|
|*****************************|
ЇЇЇЇЇЇЇЇЇЇЇЇЇЇЇЇЇЇЇЇЇЇЇЇЇЇЇЇЇ




Ваше мнение



Капча