This a correction of the othber tab, now this is definetely 100% right, so
Just play! And please do email me at [email protected] if u have any
questions or u just want to talk!
g:----------------------|----------------
d:----------------------|----------------
Intro a:----------------------|-77777777777-7--
e:-999999999999999999999|-------------0--
g:----------------------- :-----------------
d:----------------------- :-----------------
Chorus a:----------------------- x4 :----------------- x9
e:-02--20202320-02-xxx-xx :-02-x-xx--02-x-xx
g:-----------------------------------------------------------
d:-----------------------------------------------------------
Verse a:-----12/171717171717----12/171717171717-----12/171717171717
e:-02-------------------2------------------02----------------
g:---------------------
d:---------------------
a:------12/171717171717 x4
e:-0--2----------------

g:------------------
d:------------------
a:------------------ Then bak to chorus
e:-55555555555555-0-
Then on the solo, just play the verse but occasionally it will vary to:
g:-----12-12--12-12--12
d:----------12-----12--
a:--------------------- Then go back to the verse, and then chorus
e:-0-2-----------------

g:-----------------|---------------------------
d:-----------------|-------------------33333333
a:-555555555555555-|----------55555535-55555555 x6
e:-----------------|-00000000------------------
g:-----------------------------------12
d:--------------12-10--------------12--
a:------------------------------------- x2, but on the last time, do the
e:-0-let-it-ring------0-let-it-ring---- same as you did on the 1st
time
Anywhere there it is, really fun to play, so just go and play it now!
And email me, oh yeh and please Rate me!




Ваше мнение



Капча