Song: Down on the Street
Artist: Rage Against the Machine
Album: Renegades
Tabbed by: Nate Beauvais ([email protected])
http://www.basstabarchive.com/

Originally done by The Stooges

Verse
G|-------------------------------------------------------------
D|--------------7-7-5------------------------------------------
A|7-7-5-7-x-x-x-------7-x-x-x-7-7-5-7-x-x-x---------7----------
E|------------------------------------------0-3-5-3------------

Chorus
G|-------------------------------------------------------------
D|--------------------------------------7-7-5-7-5--------------
A|7-7-5--------7-7-5--------7-7-5-----------------5-7----------
E|------5-5-3--------3-3-5--------3-5-5------------------------




Ваше мнение



Капча