Track:demo 2
Artist:rage against the machine with chris cornell (civilian)
album:new demos
this is one of their new ones im not sure
what its actually called but i got off kazaa n its mad. anyway...
intro/verse:
e/---------------------------------------------------|
B/-----------------------------------4-3-------------|
G/--3--0------5------------2-------------------------|
D/---------------3------0---------1------------------|
A/---------------------------------------------------|
E/---------------------------------------------------|
chorus:
play this twice
e/---------------------------------------------------|
B/---------------------------------------------------|
G/-----------3---------------------------------------|
D/----5------3------3------5-------------------------|
A/----5------1------3------5-------------------------|
E/----3-------------1------3-------------------------|
then
e/----------------------------------------------------|
B/----------------------------------------------------|
G/----8-----------------------------------------------|
D/----8------5------3------5--------------------------|
A/----6------5------3------5--------------------------|
E/-----------3------1------3--------------------------|
e/---------------------------------------------------|
B/---------------------------------------------------|
G/----8-------------7------7-------------------------|
D/----8------5------7------7-------------------------|
A/----6------5------5------5-------------------------|
E/-----------3---------------------------------------|
now the first bit of the solo
e/----------------8----6-5-3-3----3----5------6-8-10-10---------|
B/--8----10-11---------------------------6----------------------|
G/--------------------------------------------------------------|
D/--------------------------------------------------------------|
A/--------------------------------------------------------------|
E/--------------------------------------------------------------|
now do this bit 4 times
e/----------------------------------------------------|
B/--18-18-18-17-17-17-13-13-13-10-10-10---------------|
G/----------------------------------------------------|
D/----------------------------------------------------|
A/----------------------------------------------------|
E/----------------------------------------------------|
now this part once
e/---3--5--6--8--10--11--13--15--17--17--17--17------|
B/---------------------------------------------------|
G/---------------------------------------------------|
D/---------------------------------------------------|
A/---------------------------------------------------|
E/---------------------------------------------------|
then the slow bit on acoustic
e/--6------6------5------6------6-------------5------3-------------------|
B/--8------6------7------8------7------1------7------3-------------------|
G/--8------7------7------8------8-------------7------3-------------------|
D/--8------8------7------8------8------2------7------5-------------------|
A/--6------8------5------6------6------3------5------5-------------------|
E/--6------6------5------6------6-------------5------3-------------------|
e/--6------6------5------6------6-------------5----|
B/--8------6------7------8------7------1------7----|
G/--8------7------7------8------8-------------7----|
D/--8------8------7------8------8------2------7----|
A/--6------8------5------6------6------3------5----|
E/--6------6------5------6------6-------------5----|
then the finishing chord
e/-------------------|
B/-------------------|
G/--8----------------|
D/--8----------------|
A/--6----------------|
E/-------------------|
thats about it there are probably a few mistakes cos this is my first tab
enjoy
p.s. iris rule, visit www.iris.moonfruit.com!
rob
[email protected]




Ваше мнение



Капча