From: Adrian Mayes ECD
Rage Against the Machine "Bullet in your head"
by Adrian Mayes, European Space Agency, Darmstadt, Germany
[email protected]
The song is basically very simple !! It isn't really too much
fun to play as there isn't much action going on, but here
goes...
After much e-mailing around the world I've finally settled on the
guitar over the verses. It's used with a harmonizer.
Play the natural harmonics at the 5th fret at shown over the
lyric "this time the bullet cold rocked ya"
The last time hold the harmonics and lower the pitch using the
tremelo arm.
E---------------------------------------------------------------
B---------------------------------------------------------------
G------5-5--5-5-5-5---------------------------------------------
D------5-5--5-5-5-5---------------------------------------------
A---------------------------------------------------------------
E---------------------------------------------------------------
verse:
this time the bullet cold rocked ya
(something.like Nazi salute..) and a swastika
nothing proper about your propaganda
fools follow fools (rules ?) when the set commands ya
you said it was blue
but your blood runs red
thats how you got a bullet blasted through your head
blasted through your head, blasted through your head
take a shot at the living dead
Guitar stops - some weird tones (noises) produced
using the pickup selector switch and one note over the vocals.
we stood and watched as the Feds cold centralized
so serene on the screen had us mesmerized
cellular phone sell me the death tone
(something..) turn you to stone before you realise
I'm doing this from memory now -
and I really can't remember the next vocals
....
....
....
and muthafuckers lost their minds..
E---------------------------------------------------------------
B---------------------------------------------------------------
G---------------------------------------------------------------
D---------------------------------------------------------------
A----------0----------------------------------------------------
E----0--3-------------------------------------------------------
just victims of the in-house drive by
E---------------------------------------------------------------
B---------------------------------------------------------------
G---------------------------------------------------------------
D---------------------------------------------------------------
A----2-----0----------------------------------------------------
E-------3----0--------------------------------------------------
they say jump you say how high
repeat
Then comes a short lead break:
E-12-0-0-10-0-0-8-0-0-7-0-0-5-0-3-0-0-0-0-0-0-0-0-0---repeat----
B---------------------------------------------------------------
G---------------------------------------------------------------
D---------------------------------------------------------------
A---------------------------------------------------------------
E---------------------------------------------------------------
E-15-----14----13----12----11---15----14----13----12----11------
B---14-----13----12----11----10---14----13----12----11----10----
G-----13-----12----11----10----9----13----12----11----10----9---
D---------------------------------------------------------------
A---------------------------------------------------------------
E---------------------------------------------------------------
not sure about the last 2 notes above
E--12-12-12-12-12-12-12-12---------------12-12-12-12-12-12-12-12
B--15b---------15b---------15b-r-12------15b---------15b--------
G----------------------------------14-12------------------------
D---------------------------------------------------------------
A---------------------------------------------------------------
E---------------------------------------------------------------
E--15b----------------------------------------------------------
B---------------------------------------------------------------
G---------------------------------------------------------------
D---------------------------------------------------------------
A--------------0----------------2---0---------------------------
E--------0--3---------------------3---0-------------------------
Just victims etc

I haven't gota clue about the next verse, but anyway, now for the
killer main riff
E---------------------------------------------------------------
B---------------------------------------------------------------
G---------------------------------------------------------------
D--9-9-9-9-9-7--------------------------------------------------
A--7-7-7-7-7-5-7-8-7---5-7-5------------------------------------
E--------------5-6-5-0-3-5-3-0-0-0------------------------------
That's it !!
Buy a harmonizer and ENJOY !!!
Adrian
[email protected]
End of Message




Ваше мнение



Капча