WITHOUT A FACE BY RAGE AGAINST THE MACHINE
TAB BY SCOTT STANDFEST
Hey, This is how i play the song live with my band and when we play it
sounds just like the album. I tabbed it myself. One reason is cuz im
good at it and if you play this song i tabbed, thats proof.Its a simple
song and THIS IS TABBED CORRECTLY! The solo Kicks ass so have fun
with that. Have fun with the song!
G---7-7-7-7-7-7-7-7----------------------
TREMELO PICKING! Do this for the verses.
G---7-7-7-7-7-7-7-7----------------------
Still keep tremelo picking but arch your finger so its a richer and
deeper sounding harmonic.
D-2-2-----2-2-----2-2--------------------
A-2-2-----2-2-----2-2--------------------
E-0-0-----0-0-----0-0--------------------
With Wah wah.Slowly rock it forward and jolt back when picking the next
notes.
D-2-2--2-2--2-2--2----l--7------------%
A-2-2--2-2--2-2--2----l---------------%
E-0-0--0-0--0-0--0----l---------------%
Same thing but faster. WAH OFF!
G---7-7-7-7-7-7-7-7-7------------------
More Tremelo Picking here for the 2nd verse.
G---7-7-7-7-7-7-7-7-7------------------
Arch finger up on string again.
D-2-2---2-2--2-2----------------------
A-2-2---2-2--2-2----------------------
E-0-0---0-0--0-0----------------------
Do the slow wah wah rocking again.
D-2-2-2--2--2-2-2--2----l--7----------%
A-2-2-2--2--2-2-2--2----l-------------%
E-0-0-0--0--0-0-0--0----l-------------%
Still w/ wah but faster. Wah OFF!
GUITAR SOLO! Okay, this solo kicks ass! You need a whammy pedal and
set it to harmonize a 7th up when it is forward and a 5th up when back.
And finally, a vibrato bar(WHAMMY BAR)
**WAMMY BAR, HOLD DOWN AND LET UP**
G-12^-12^-12^--12^-12^--12^---------
On each note throw whammy pedal forward on each note.
**Whammy bar**
G-13^-13^-13^--13^-13^--13^
G-----------------12^bend then release----%
D-2-xxxxxxxxxxxx--------------------------%
A-2-xxxxxxxxxxxx--------------------------%
E-0-xxxxxxxxxxxx--------------------------%
On string mutes, slide your left hand down the fret board while
still muting and picking.
LOW E-3-1--3-1--3-1--3-1--
D-5-3--5-3--5-3--5-3---%
A-5-3--5-3--5-3--5-3---%
E-3-1--3-1--3-1--3-1---%
KEY
^ FULL STEP BEND
% REPEAT


Ваше мнение



Капча