This song absolutely rulz.
It rulz more than an orange whale.
I'm pretty sure that this is perfect tab so if u think not then u is be playin the darned thang rong
Track - Born Of A Broken Man
Band - Rage Against The Machine
Tuning - (D,A,D,G,B,e)
fb = Full Bend
X = Palm Mute
~ = Tremolo
/ = Slide Up
()fb = Bend note fully whilst hitting notes
= = Let ring
Verse - Clean (Slight Echo + slight Distortion)
e|-----------------------------------------------------
B|-----------------------------------------------------
G|-14--14--14-14--14-14-14-14---13--13--13-13-16--16-16
D|-0---0---0--0---0--0--0--0----0---0---0--0--0---0--0-
A|-0---0---0--0---0--0--0--0----0---0---0--0--0---0--0-
D|-----------------------------------------------------
--------------------------------------|
--------------------------------------|
-0---0---0--0---0--0---0--0---4----2-2|
-0---0---0--0---0--0---0--0---0----0-0|
-X---X---X--X---X--X---X--X---0----0-0|
-17--17--17-17--17-17--17-17----------|
Chorus - Heavy distortion
e|-------------------------------------------------|
B|-------------------------------------------------|
G|-------------------------------------------------|
D|---5fb-------------------X-X-X-X-----------------|
A|0------3--0--7-0-0-3--0--X-X-X-X--3--0--7-0-0-3-0|
D|0------3--0--7-0-0-3--0--X-X-X-X--3--0--7-0-0-3-0|
Chorus Fill - Heavy distortion
e|---------------------------------------------------|
B|---------------------------------------------------|
G|---------------------------------------------------|
D|---5fb-------------------X-X-X-X-------(55555555)fb|
A|0------3--0--7-0-0-3--0--X-X-X-X--3--0-------------|
D|0------3--0--7-0-0-3--0--X-X-X-X--3--0-------------|
Solo - Heavy distortion
e|---------------------------|
B|---------------------------|
G|---------------------------|
D|---------------------------|
A|0-0-0-0-0-0-0-15~~~~-15/17~|
D|0-0-0-0-0-0-0--------------|
Solo Outro - Heavy Distortion
e|-------------------------------|
B|-------------------------------|
G|-------------------------------|
D|---5fb-------------------------|
A|0------3--0--7-0-0-3--0========|
D|0------3--0--7-0-0-3--0========|
Verse x 2
Chorus x 2
Chorus Fill x 1
Chorus x 1
Verse x 2
Chorus x 2
Chorus Fill x 1
Chorus x 1
Verse x 3
Chorus x 2
Chorus Fill x 1
Chorus x 1
Solo x 3
Solo Outro x 1
Verse x 2
Chorus x 4
Chorus Fill x 1
Chorus x 1
Solo x 3
Solo Outro x 1
Solo x 3
Solo Outro x 1




Ваше мнение



Капча