-------------------------------------------------------------------------------
Born As Ghosts - Rage against the Machine
-------------------------------------------------------------------------------
| / slide up
| slide down
| h hammer-on
| p pull-off
| ~ vibrato
| ^ harmonic
| x Mute note
r Let ring
b bend
* Pick scrape
Tabbed by:Fuzzy1823
Email:
Tuning:standard
intro use a whammy pedal bending down, I have an rp6 so the settings are
diferent o=open +=closed...i think
+ o + o
e|---------------------------------------------------------------------------|
B|---------------------------------------------------------------------------|
G|---------------------------------------------------------------------------|
D|-2r--------2r--------------------------------------------------------------|
A|-2r--------2r--------------------------------------------------------------|
E|-0r--------0r--------------------------------------------------------------|
Chorus whammy off
e|---------------------------------------------------------------------------|
B|---------3b---5b-----------------------------------------------------------|
G|---------------------------------------------------------------------------|
D|-2-2-2-2-------------------------------------------------------------------|
A|-2-2-2-2-------------------------------------------------------------------|
E|-0-0-0-0-------------------------------------------------------------------|
Solo whammy on againg the first part is tripped out but this is easy...kinda
ooooooooooooooooooooooooooooooooooooooooooooooooooooooooooooooooooooooooooo
e|---------------------------------------------------------------------------|
B|-------------17----------------17-19--------------------17-----------------|
G|----------------14---------------------------------------------------------|
D|---------------------------------------------------------------------------|
A|---------------------------------------------------------------------------|
E|-*-*-*-*-*-*------*-*-*-*-*-*-*------*-*-*-*-*-*-*-*-*---------------------|
He messes with this a bunch then goes to chorus
Contents :
intro
chorus
intro
chourus
solo
chorus
done




Ваше мнение



Капча