From: [email protected] (Zaphod Beeblebrox)
~From: NATHAN VIJAY PATWARDHAN
I transcribed this song 'bombtrack' from Rage Against the Machine; I
hope it helps those of you out who like this band...this song can be found on
the band's self-titled (and only) album.
Intro: (w/octaver)
|----------------|----------------|-----------------|------------------|
|----------------|----------------|-----------------|------------------|
|----------------|--------------1-|-----------------|------------------|
|---3-1---1------|---3-1---1-3----|---3--1----1-----|---3--1----1------|
|-------3---3-1--|-------3--------|---------3---3-1-|---------3---3-1--|
|-1------------4-|-1--------------|-1--------------4|--1--------------4|
|----------------|----------------|-----------------|------------------|
|----------------|----------------|-----------------|------------------|
|----------------|------------1(3)|-----------------|------------------|
|---3-1---1------|---3-1--1-3-----|---3--1----1-----|---3--1----1------|
|-------3---3-1--|-------3--------|---------3---3-1-|---------3---3-1--|
|-1------------4-|-1--------------|-1--------------4|--1--------------4|
-tr---




Ваше мнение



Капча