intro: (play around with this)
e-------------------------------------------------------|
a-------------------------------------------------------|
d--------------------------------------------0----------|
g-----2--0-----0--------------2--0-----0--2-------------|
b-----------2-----2--0--------------2-------------------|
e--0--------------------3--0----------------------------|

e-------------------------------------------------------|
a-------------------------------------------------------|
d-------------------------------------------------------|
g-----2--0-----0--------------2--0-----0----------------|
b-----------2-----2--0--------------2-----2-------------|
e--0--------------------3--0-----------------3--2-------|

e-------------------------------------------------------|
a-------------------------------------------------------|
d--------------------------------------------(02)-0-----|
g-----2--0-----0--------------2--0-----0--2-------------|
b-----------2-----2--0--------------2-------------------|
e--0--------------------3--0----------------------------|

riff 1:
e-------------------------------------------------------------|
a-------------------------------------------------------------|
d---------------------------------------------------4--5--4---|
g--------4--------------4--2----------4-------------4--5--4---|
b---------------------------------------------------6--3--2---|
e--0--2-----0--2--0--2----------0--2-----0--2----0--6--3--2---|

verse:
e----------------------------------------|-------------------------------------|
a----------------------------------------|-------------------------------------|
d----------------------------------------|-------------------------------------|
g----------------------------------------|------------------4--2---------------|
b----------------------------------------|------------------------4--3--2------|
e--2--2--0----2--2----2----2----2--5/----|---2--2--0--2--0-----------------5---|

riff 2:
e----------------------------------------|--------------------------------------------|
a----------------------------------------|--------------------------------------------|
d-----------------------------x--x--x--x-|--------------------------------------------|
g-----------------------------x--x--x--x-|--------------------------------------------|
b-----------------------------x--x--x--x-|----------------------------4--0--3--0--2--0|
e--2--0--2--0--5--2--0--2--0-------------|-2--0--2--0--5--2--0--2--0------------------|

solo:
e--------------------------------------------------------------------|
a------------16--------------------------16-14-17^--17-17-17--(17)---|
d--x--14--x--16--x--14--x--16--x--14--x--16--------------------------|
g--x--14--x--16--x--14--x--16--x--14--x--16--------------------------|
b--------------------------------------------------------------------|
e--------------------------------------------------------------------|

e--------------------------------------|-14-17-16-17-16--(16)~~~~~~~~~~~|
a------------16------------------------|--------------------------------|
d--x--14--x--14--x--16--x--14--x--16/--|--------------------------------|
g--x--14--x--14--x--16--x--14--x--16/--|--------------------------------|
b--------------------------------------|--------------------------------|
e--------------------------------------|--------------------------------|

e--------------------------|
a--17^-17^-17^-17^-(17)/---|
d--16^-16^-16^-16^-(16)/---|
g--------------------------|
b--------------------------|
e--------------------------|

e-----------------------------------------------------|
a-----------------------------------------------------|
d--14-14-14----14-14-14-------14-14-14----14-14-14----|
g-----------16------------16-----------16----------16-|
b-----------------------------------------------------|
e-----------------------------------------------------|

e-------------------------------------------------------|
a-------------------------------------------------------|
d-14-14-14----14-14-14-----------6--5--4----4--3--2-----|
g----------16-4---------16-------6--5--4----4--3--2-----|
b---------------------------x/---4--3--2----2--2--0-----|
e--0-----2-----------0---2--x/0--4--3--2----2--1--------|

lyrics:

(riff 1):
hey, yo, it's just another bomb track
yeah

(verse):
It goes - a one, two, three. It's just another bomb-track
And suck-as be think-in' that they can
fade this
But i'm-a drop it at a higher level
'Cause i'm inclined to stoop down
hand out some beat downs
Cold run na train on punk ho's that
think they run the game
But i learned to burn that bridge
and delete
those who complete at a level that's
obsolete
Instead i warm my hands up on the
flames of the flag
as i recall our downfall
and the busnesses' that burned us all
See through the news and the veiws that
twist reality
Enough, i call the bluff
for a manifest destiny
Land-lords and power whores
on my people they took turns
Dis-pute the suits i ig-nite
and then watch 'em burn
The thoughts from a militant mind
Hard-line, hard-line af-ter hard-line
Landlords and power whores
On my people they took turns
dispute the suits i ignite
And then i watch 'em burn

(riff 1):
Burn, burn, yes your gunna burn
Burn, burn, yes your gunna burn
Burn, burn, yes your gunna burn
Burn, burn, yes your gunna burn
yes your gunna
Burn, burn, yes your gunna burn
Burn, burn, yes your gunna burn
Burn, burn, yes your gunna burn
Burn, burn, yes your gunna burn

(verse):
Goes-a one, two, three
Another funkey, radical bombtrack
started as a sketch in my note book
But now dope hooks make punks take
another look
My thoughts ya hear and ya begin to
fear
That ya card will get pulled if ya
interfere
With the thoughts of a militant mind
Hardline, hardline after hard line
Landlords and power whores
On my people they took turns Dispute the suits i ignite
And then watch 'em burn

(chorus)
(riff 2)
(solo)
(chorus)




Ваше мнение



Капча