Band: Rage Against The Machine
Song: Autologic
Tabbed By: JP Fernandez

q q q q q q q q riff a
G---------------------------|
D---------------------------|
A---5--5--5--5--5--5--5--5--|
D---------------------------|

e^ s^ q e^ s^ e e e^ s^ e e^ s^ q e^ s^ e^ s^ e e e riff b
G--------r--r--------------------|---------r--r-----------------r--|
D--------e--e-----------3--0-----|---------e--e-----------------e--|
A--3--5--s--s--3--5--5--------3--|---3--5--s--s--0--3--0--------s--|
D--------t--t--------------------|---------t--t-----------5--3--t--|

e^ s^ q e^ s^ e e e^ s^ e e^ s^ h e^ s^ e e
G--------r--r--------------------|---------r-----------r--|
D--------e--e-----------3--0-----|---------e-----------e--|
A--3--5--s--s--3--5--5--------3--|---3--5--s-----------s--|
D--------t--t--------------------|---------t--7--6--5--t--|

e e H riff c1
G--------r--|
D--------e--|
A--------s--|
D--3--5--t--|
e e q e^ s^ e^ s^ e^ s^ e^ s^ riff c2
G--------r--r-----r-----------------|
D--------e--e-----e-----------------|
A--------s--s-----s-----------------|
D--3--5--t--t--8--t--8--8--8--8--8--|

riff c1 x 3 + riff c2 x 1 = riff c
q e e^ s^ e^ s^ e e e^ s^ riff d
G---11--r----------r------r--------------|
D---12--e----------e--10--e--10--10--12--|
A-------s--10--12--s------s--------------|
D-------t----------t------t--------------|

q e e^ s^ e^ s^ e^ s^ q
G---11--r----------r------r-----------|
D---12--e----------e--10--e--10---10--|
A-------s--10--12--s------s----_/----|
D-------t----------t------t-----------|

q e e^ s^ e^ s^ e e e^ s^
G---11--r----------r------r--------------|
D---12--e----------e--10--e--10--10--12--|
A-------s--10--12--s------s--------------|
D-------t----------t------t--------------|

q e q e e^ s^ e
G---11--r---------------------|
D---12--e--12--10-------------|
A-------s----------12--10--8--|
D-------t---------------------|

q q q q q H riff e
G-----------------r--|
D-----------------e--|
A--5--5--5--5--5--s--|
D-----------------t--|
Order-O-Riffs
riff a x 1
riff b x 2
rest 4 measures
riff c x 2
riff b x 2
rest 4 measures
riff c x 2
riff b x 2
riff d x 2
rest 4 measures
riff c x 2
riff b x 4
riff e x 1

----------
-_/------ Slur
----------
----------

Rhythm:
w = whole note W = dotted whole
h = half note H = dotted half
q = quarter note Q = dotted quarter
e = eighth note E = dotted eighth
s = sixteenth note S = dotted sixteenth
t = 32nd note T = dotted 32nd
x = 64th note X = dotted 64th
^ = triplet




Ваше мнение



Капча