Wish you were Here - Radiohead (Pink Floyd cover)
Tab written by Ape ([email protected])
--------------------------------------------------------
C 032010
D 000232
Am 002210
G 320003
--------------------------------------------------------
Intro:
-------------------------------- X 2
--------------------------------
---------------------0----------
----------0---2-----------2--0--
-----0--2-----------------------
--3-----------------------------
-------------------------------- X 2 ---------------
-------------------------------- ---------------
-------------------------------- ---------------
----------0---2---2---0--------- ---------------
-----0--2-----------------2---0- --0---2---0----
--3----------------------------- -------------3-
C D
So, so you think you can tell
Am G
Heaven from hell, blue skies from pain
D C
Can you tell a green field from a cold steel rail?
Am
A smile from a veil?
G
Do you think you can tell?
C D
And did they get you to trade your heroes for ghosts?
Am
Hot ashes for trees?
G
Hot air for a cool breeze?
D
Cold comfort for change?
C Am G
And did you exchange a walk on part in the war for a lead role in a cage?
(Intro)
C D
How I wish, how I wish you were here
Am
We're just two lost souls swimming in a fish bowl,
G D
Year after year running over the same old ground
C
What have you found?
Am G
The same old fears, wish you were here...
C D Am G D C Am G
--------------------------------------------------------
Another Big Thks to Radiohead (and to PinkFloyd)!





Ваше мнение



Капча