-------------------------------------------------------------------------------
Wicked Child - Radiohead
-------------------------------------------------------------------------------

Tabbed By : Chris
e-mail: [email protected]

Tuning:Normal
It starts of with the bass and the guitar playing together:
G|---------------------------------------------------------------------------|
D|-------------------------10--8---------------------------------------------|
A|----------------10--8------------10----------------------------------------|
E|--3------------------------------------------------------------------------
Second time round its:

G|---------------------------------------------------------------------------|
D|---------------------------------10----------------------------------------|
A|-----------10--8---------------------10------------------------------------|
E|---3------------------------8----------------------------------------------
Third time round its:

G|---------------------------------------------------------------------------|
D|---------------------------------------------------------------------------|
A|----------10--8------------------------------------------------------------|
E|---3-------------------------8--6----3-------------------------------------
After that Colin sticks with either the third way of playing the riff or this:

G|---------------------------------------------------------------------------|
D|---------------------------------------------------------------------------|
A|---------------------------------------------------------------------------|
E|--3---1---------------8---6-----3-3--3-------------------------------------
There is a little bridge where the drums stop and the bass is:

G|---------------------------------------------------------------------------|
D|---------------------------------------------------------------------------|
A|---------------------------------------------------------------------------|
E|----8--8---7---6--6--5--3--3--3--------------------------------------------
Thats pretty simple. The bass stays on that riff all the way threw but Colin plays
around with it quite alot.
Thats pretty much it, if u want to contact me its [email protected]

| / slide up
| slide down
| h hammer-on
| p pull-off
| ~ vibrato
| + harmonic
| x Mute note
===============================================================================





Ваше мнение



Капча