Radiohead- Where I End And You Begin
Album- Hail to the Thief
Jess Penther
E----------------------------------------------------------------------
B----------------------------------------------------------------------
G----------------------------------------------------------------------
D-10--10--10-10--10-10--10-8-5--5-5-5--5-5--5-3--6--6--6-6--6-6--6-5---
A----------------------------------------------------------------------
E----------------------------------------------------------------------
E----------------------------------------------------------------------
B----------------------------------------------------------------------
G----------------------------------------------------------------------
D-3--3--3-3--3-3-3-1--5--5--5-5--5-5--3-1------------------------------
A-----------------------------------------3--3--3-3--3-3-3--3---6--6---
E----------------------------------------------------------------------
E----------------------------------------------------------------------
B----------------------------------------------------------------------
G----------------------------------------------------------------------
D-----------------8-8--8--8-8--8-8--5-10-------------------------------
A--6-6--6-6--6--6------------------------------------------------------
E----------------------------------------------------------------------

Inbetween the verses play:
E----------------------------------------------------------------------
B----------------------------------------------------------------------
G----------------------------------------------------------------------
D----------------------------------------------------------------------
A--3--3--3-3--3-3-1-3-6------------------------------------------------
E----------------------------------------------------------------------
then swap to this - i think it's either plam muted or distorted cuz it doesn't
sound right when played clean:
E----------------------------
B--9--9--9-9--9-9--8-8-------
G----------------------------
D--6--6--6-6--6-6--5-5------- 4 times
A----------------------------
E----------------------------
E--11-11-11-11-11-11-11--------------------
B-----------------------8-8-9--------------
G--8--8--8--8--8--8--8---------------------
D-----------------------5-5-6--------------then this one twice
A------------------------------------------
E------------------------------------------
then the 'i will eat you alive' bit is this
E----------------------------------------------------------------------
B----------------------------------------------------------------------
G----------------------------------------------------------------------
D----------------------------------------------------------------------
A--3-1-3-6-6-6--3-1-3-6-6-6--3-1-3-6-6-6--3-1-3-8-8-8------------------
E----------------------------------------------------------------------
E----------------------------------------------------------------------
B----------------------------------------------------------------------
G----------------------------------------------------------------------
D----------------------------------------------------------------------
A--6-3-6--3--3--6-3-6--3--3--6-3-6--3--3--6-3-6--3--3------------------
E----------------------------------------------------------------------
LYRICS-
there's a gap in between
there's a gap where we meet
where i end and you begin
and i'm sorry for us
the dinosaurs roam the earth
the sky turns green
where i end and you begin
i am up in the clouds
i am up in the clouds
and i can't and i can't come down
i can watch but not take part
where i end and where you start
where you, you left me alone
you left me alone.
X will mark the place
like the parting of the waves
like a house falling in the sea.
i will eat you all alive
i will eat you all alive
i will eat you all alive
i will eat you all alive
there'll be no more lies
there'll be no more lies
there'll be no more lies
there'll be no more lies





Ваше мнение



Капча