Am Asus4 Am Asus2
E-|---------0---------------0---------------0-----------------------|
B-------3---------------1---------------0---------------|
G---2-------2-------2-------2-------2-------2-------2---|
D-----------------------------------------------2-------|
A-|-0---------------------------------------------------------------|
E-------------------------------------------------------|


FIG E:-

Em Em7 Em6 Em
E-|---------0---------------0---------------0-----------------------|
B-------3---------------1---------------0---------------|
G-|-----0-------0-------0-------0-------0-------0-------0-------0---|
D-----------------------------------------------2-------|
A-------------------------------------------------------|
E-|-0---------------------------------------------------------------|


FIG C:-

C Cadd9 C Cmaj7
E-|---------0---------------0---------------0-----------------------|
B-------3---------------1---------------0---------------|
G-|-----0-------0-------0-------0-------0-------0-------0-------0---|
D-----------------------------------------------2-------|
A-|-3---------------------------------------------------------------|
E-------------------------------------------------------|


Intro: A
Verses: A E
Chorus: C E A


Rows of houses all bearing down on me
I can feel their blue hands touching me
All these things in all positions
All these things we`ll one day swallow whole
And fade out again
And fade out

This machine will
Will not communicate
These thoughts
And the strain i am under
Be a world child form a circle before we all
Go under
And fade out again
And fade out again

Cracked eggs, dead birds
Scream as they fight for life
I can feel death, can see it`s beady eyes
All these things into frution
All these things we`ll one day swallow whole
And fade out again
And fade out again

Immerse your soul in love
Immerse your soul in love





Ваше мнение



Капча