by jb

e-------0-----------0------------0-------------------------
b------------3------------1------------0-------------------
g---------2-----2-----2------2------2-----2-----2----------
d----2---------------------------------------2-------------
a-0--------------------------------------------------------
e----------------------------------------------------------

e-------0-----------0------------0-------------------------
b------------3------------1------------0-------------------
g---------2-----2-----2------2------2-----2-----0----------
d----2---------------------------------------2-------------
a-0--------------------------------------------------------
e----------------------------------------------------------

e-------0-----------0------------0-------------------------
b------------3------------1------------0-------------------
g---------2-----2-----2------2------2-----2-----0----------
d----2---------------------------------------2-------------
a-3--------------------------------------------------------
e----------------------------------------------------------

e-------0-----------0------------0-------------------------
b------------3------------1------------0-------------------
g---------2-----2-----2------2------2-----2-----2----------
d----2---------------------------------------2-------------
a----------------------------------------------------------
e-0--------------------------------------------------------

repeat thoughout the song (this is my 1st tab by the way)





Ваше мнение



Капча