Name: Scatterbrain (live in Lisbon 22-07)
Tabbed by: Gavin Hastings
This tab was taken from Casey Jone's original edited and cycled through guitar pro.
This is the song the whole way through.
Two guitars play this song. I've tabbed it here as one.
Intro
E||------|------|------|------||-----------------------|--------------------|
B||------|------|------|------||-----------------------|--------------------|
G||------|------|------|------||*--------9-------------|-------7------------| * - - - - - *
D||------|------|------|------||*-----7----------------|----5---------------| * - - - - - * = Repeat from first to 2nd.
A||------|------|------|------||-----------------------|--------------------|
E||------|------|------|------||---8----------------7--|--------------------|
Verse
----------------------|---------------------||-----------------------|
----------------------|---------------------||-----------------------|
--------5-------------|-------4------------*||*--------9-------------|
-----3----------------|----2---------------*||*-----7----------------|
----------------------|---------------------||-----------------------|
--5----------------3--|---------------------||---8----------------7--|

--------------------|----------------------|--------------------|
--------------------|----------------------|--------------------|
-------7------------|--------5-------------|-------4------------|
----5---------------|-----3----------------|----2---------------|
--------------------|----------------------|--------------------|
--------------------|--5----------------3--|--------------------|

3x
----------------------|--------------------|-----------------------||
----------------------|--------------------|-----------------0-----||
--------2-------------|-------0------------|--------2-------------*|| 3x = no. of *repeats* (so played 4 times)
-----1----------------|----1---------------|-----1----------------*||
----------------------|--------------------|-----------------------||
--2----------------0--|--------------------|--0--------------------||
Bridge
----------------------|----------------------|-----------------0----|
--------4--------3----|--2-----6--------5----|--0--------------0----|
-----3----------------|----------------------|-----0-----------0----|
----------------------|----------------------|--------2-------------|
----------------------|-----0----------------|----------------------|
--3-------------------|----------------------|--------0-------------|

--3--2----------------|----------------------|----------------------|
--------3--------3----|--------4--------3----|--------6--------5----|
--------2--------2----|-----3--3--------3----|-----6--6--------6----|
-----0--0--------0----|----------------------|----------------------|
----------------------|----------------------|----------------------|
----------------------|--3-------------------|--5-------------------|
Verse
|-----------------------|--------------------|----------------------|
|-----------------------|--------------------|----------------------|
|*--------9-------------|-------7------------|--------5-------------|
|*-----7----------------|----5---------------|-----3----------------|
|-----------------------|--------------------|----------------------|
|---8----------------7--|--------------------|--5----------------3--|

--------------------|----------------------|--------------------|
--------------------|----------------------|--------------------|
-------4------------|--------2-------------|-------0------------|
----2---------------|-----1----------------|----1---------------|
--------------------|----------------------|--------------------|
--------------------|--2----------------0--|--------------------|
Bridge
3x
-----------------------||-----------------------|-----------------------|
-----------------0-----||-----------------------|-----------------------|
--------2-------------*||--------5---------4----|--------7---------6----|
-----1----------------*||-----2-----------------|-----4-----------------|
-----------------------||-----------------------|-----------------------|
--0--------------------||--3------------3-------|--6------------6-------|

-------------------------|-------------------------|-----------------------|
--------3----------------|--------2----3--2--0-----|-----------------------|
-------------7--6--4-----|-------------------------|--------5---------4----|
-----4-------------------|-----0-------------------|-----2-----------------|
-------------------------|--0-------------------0--|-----------------------|
--7-------------------7--|-------------------------|--3------------3-------|

-----------------------||--------------------------|
-----------------------||---------3----------------|
--------7---------6----||*-------------7--6--4-----|
-----4-----------------||*-----4-------------------|
-----------------------||--------------------------|
--6------------6-------||---7-------------------7--|
4x
-----------------------------|-----------------------|------------------------||
---------------10------------|-----------------------|------------------------||
-------------------11--------|--------5---------4----|--------7---------6----*||
---------12------------12----|-----2-----------------|-----4-----------------*||
-----------------------------|-----------------------|------------------------||
--6/-10----------------------|--3------------3-------|--6------------6--------||
Outro
--------------------------|--------------------------|
--------------------------|--------------------------|
--------------------------|------11------------------|
--------12--14------12----|------------12----11h-12--|
----14--------------------|--------------------------|
--------------------------|--------------------------|

--------------------------|--------------------------|
--------------------------|--------------------------|
--------------------------|--------------------------|
--------12--14------12----|--------12--14------12----|
----14--------------------|----14--------------------|
--------------------------|--------------------------|

--------------------------|--------------------------|
--------------------------|--------------------------|
--------------------------|------11------------------|
--------12--14------12----|------------12----11h-12--|
----14--------------------|--------------------------|
--------------------------|--------------------------|

--------------------------||
--------------------------||
--------------------------||
--------12--14--------12--||
----14--------------------||
--------------------------||





Ваше мнение



Капча