note: this is the first time I've tabbed something, plus I'm only 16.
but this is a great song, one of my favorites from Radiohead.
(Standard Tuning)
Intro
------
e|-4---4--4--4--5--4--3-1-0---0--0--0--0--0--0-
B|-2---2--2--2--2--2--1-----1-1--1--1--1--1--1-
G|-2---2--2--2--2--2--0-------2--2--2--2--2--2-
D|-2---2--2--2--2--2--2-------3--3--3--3--3--3-
A|-0---0--0--0--0--0--3-------3--3--3--3--3--3-
E|--------------------0-------0--0--0--0--0--0-
e|-4--4--4--4--4--5--4--3-1-0-0--0--0--0--0--0-
B|-2--2--2--2--2--2--2--1-----1--1--1--1--1--1-
G|-2--2--2--2--2--2--2--0-----2--2--2--2--2--2-
D|-2--2--2--2--2--2--2--2-----3--3--3--3--3--3-
A|-0--0--0--0--0--0--0--3-----3--3--3--3--3--3-
E|----------------------0-----0--0--0--0--0--0-
e|-4--4--4--4--4--5--4--3-1-0-0--0--0--0--0--0-
B|-2--2--2--2--2--2--2--1-----1--1--1--1--1--1-
G|-2--2--2--2--2--2--2--0-----2--2--2--2--2--2-
D|-2--2--2--2--2--2--2--2-----3--3--3--3--3--3-
A|-0--0--0--0--0--0--0--3-----3--3--3--3--3--3-
E|----------------------0-----0--0--0--0--0--0-
Verse
------play this 2 times---
e|-0--0--0--0--0--0--0-0-0-0--
B|-0--0--0--0--0--0--0-0-1-1--
G|-2--2--2--2--2--2--2-2-2-2--
D|-2--2--2--2--2--2--2-2-3-3--
A|-0--0--0--0--0--0--0-0-3-3--
E|-----------------------0-0--
------on the 3rd time
e|-0--0--0--0-0--0--0--0-0-0--0--0-0-0-0
B|-0--0--0--0-0--1--1--1-1-0--0--0-0-1-1
G|-2--2--2--2-2--0--0--0-0-0--0--0-0-2-2
D|-2--2--2--2-2--2--2--2-2-2--2--2-2-3-3
A|-0--0--0--0-0--3--3--3-3-2--2--2-2-3-3
E|-------------------------0--0--0-0-0-0
------4th time, play this again 2 times
e|-0--0--0--0--0--0--0-0-0-0--
B|-0--0--0--0--0--0--0-0-1-1--
G|-2--2--2--2--2--2--2-2-2-2--
D|-2--2--2--2--2--2--2-2-3-3--
A|-0--0--0--0--0--0--0-0-3-3--
E|-----------------------0-0--
------then this
e|-0--0--0--0-0--0--0--0-0-0--0--0-0-------------0-1-1-0-0-0-0-0-0-0-0-0-0-0-
B|-0--0--0--0-0--1--1--1-1-0--0--0-0-2-4-4-2-2-4-1-1-1-1-0-0-0-0-0-0-0-0-0-0-
G|-2--2--2--2-2--0--0--0-0-0--0--0-0-2-2-2-2-2-2-0-0-0-0-2-2-2-2-2-2-2-2-2-2-
D|-2--2--2--2-2--2--2--2-2-2--2--2-2-2-2-2-2-2-2-2-2-2-2-3-3-3-3-3-3-3-3-3-3-
A|-0--0--0--0-0--3--3--3-3-2--2--2-2-0-0-0-0-0-0-3-3-3-3-3-3-3-3-3-3-3-3-3-3-
E|-------------------------0--0--0-0---------------------1-1-1-1-1-1-1-1-1-1-
------then this
e|-------------0-1-1-0-0-0-0-0-0-0-0-0-0-0-
B|-2-4-4-2-2-4-1-1-1-1-0-0-0-0-0-0-0-0-0-0-
G|-2-2-2-2-2-2-0-0-0-0-2-2-2-2-2-2-2-2-2-2-
D|-2-2-2-2-2-2-2-2-2-2-3-3-3-3-3-3-3-3-3-3-
A|-0-0-0-0-0-0-3-3-3-3-3-3-3-3-3-3-3-3-3-3-
E|---------------------1-1-1-1-1-1-1-1-1-1-
and then you repeat the verse and I couldn't come up with the ending
but if anyone does figure out the rest, feel free to add on or whatever.
Thanks, I tried my best.





Ваше мнение



Капча