* RADIOHEAD - Punchdrunk Lovesick Singalong
* My Iron Lung EP
* Guitar tab by Ditch , Seb ,
Dave
Chords:
Fm 133111
C 032010
G 320033
Ab5 466xxx
Em 022000
G5 355XXX
Intro riff:
(play with high chorus and reverb for the full effect)
e-----------------------15--13--------|
b--------13--13--13------------14--13-|
g---13--------------------------------|
d-------------------------------------| x2
a-------------------------------------|
e-------------------------------------|
e-----------------------14--12-------|
b-------12--12--12------------13--12-|
g---12-------------------------------|
d------------------------------------| x2
a------------------------------------|
e------------------------------------|
e------------------------------|
b---8^---10^---12^---14^---15~-|
g------------------------------|
d------------------------------|
a------------------------------|
e------------------------------|
(Intro: Fm Em)
Fm Em
I wrapped you inside my coat
Fm C
When they came to firebomb the house
Fm Ab5
I didn't feel a thing, cause no one can touch me
Fm
Now that I'm under your spell
1------------------------------------------------------|
2--11b-11b-9----9----11--9---9-11 9 11-11b(12)---------|
3------------10---10-----------------------------------|
4------------------------------------------------------|
5------------------------------------------------------|
6------------------------------------------------------|
G
A beautiful girl, a beautiful girl
C
Can turn your world into dust
Fm Em
Sell me a car that starts
Fm C
Sell me a house that stands
Fm Ab5 Fm Em
I never cared before, I never cared before, I never cared before
Fm Em
before, before
Fm Em
before
G
A beautiful girl, a beautiful girl
C
Can turn your world into dust
G
A beautiful girl, a beautiful girl
C
Can turn your world into dust
(Solo - based around 2nd,3rd,5th frets of E,A,D strings)
Fm Em
I stood in front of her face
Fm C
When the first bullet was shot.
=======================================
Guitar Archive at Planet Telex
http://www.underworld.net/radiohead/
Max Kolombos
---------------------------------------





Ваше мнение



Капча