Song: Polyethylene
Tab by: Eivind Amundsen
hi...
i don't know if this tab is correct, but it's better than nothing! if you can correct
my tab, i'll be pleased.
Radiohead
g--------------|---------|------------|-----------|
d--------------|---------|------------|-----------|
a--2-----------|---------|-----5------|-----------|
e-----------5--|------3--|------------|----0------|
tears of joy in a sky with souls are all that you

g-----------|-------|---------|
d-----------|-------|---------|
a-----------|--2----|---------|
e------2----|-------|--5------|
wanna be Just got paid and
g---------|-------------|------|
d---------|-------------|------|
a---------|-5-----------|------|
e---3-----|--------0----|---2--|
now you've gone how second place?
g-----------|-------|-------------|--------|
d-----------|-------|-------------|--------|
a--2--------|-------|----5--------|--------|
e--------5--|----3--|-----------0-|---2----|
If i get scared i'll just call___ you___
g--------------|---------|---------|
d--------------|---------|---------|
a--2-----------|---------|-5-------|
e-------5------|---3-----|---------|
if you call as i will settle and
g-------|----------|-------------|
d-------|----------|-------------|
a-------|----------|-------------|
e--0----|-------2--|--2----------|
we'll always feel we'll always feel


part II
if the bass is following the guitar, it is played like this:
intro
G-2-0-------------------------------|
D-----3-2-0-------------------------|
A-----------3-2-0-------------------|
E------------------35-5-5-5-5-5-5--|

the verse goesm something like this:
verse
g---------------------------------------------|
d---------------------------------------------|
a---------------------3333------------5555555-|
e--5555--00000-11111-------11111--6666--------|
ref?
g---------------------------------------|
d---------------------------------------|
a---------------------------------------|
e--2-2-2-2-2-2--3-2-0-1-0-5-5-5-5-5-5-5-|
This is my first tab.. so be nice.
if you can do better... do it!





Ваше мнение



Капча