* RADIOHEAD - Permanent Daylight
* My Iron Lung EP
* Guitar tab by Stewart Peters
Works best in Open G tuning: DBGDGD, from 1st (high) string to 6th (low)
string. All re-tuned strings are tuned down. Although there is little
or no use of the 1st & 6th strings I would still recommend tuning them
down to D. Note that the time signature changes from 4/4 to 6/8. The
strumming pattern is real easy though.
-----------------------------------------------------------|
--------------------------------------------------------------|
-6--6--6--6--4--4--4--2--2--2--2--2--2--4--4--4---------------|
4/4 -0--0--0--0--0--0--0--0--0--0--0--0--0--0--0--0-----------|
-0--0--0--0--0--0--0--0--0--0--0--0--0--0--0--0---------------|
--------------------------------------------------------------|
-----------------------------------------------------------------|
-----------------------------------------------------------------|
-6--6--6--6--4--4--4--2--2--2--2--4---------------------------|
6/8 -0--0--0--0--0--0--0--0--0--0--0--0-----------------------|
-0--0--0--0--0--0--0--0--0--0--0--0------------------------------|
-------------------------------------------------------------|
----------------------------------------------------------------|
----------------------------------------------------------------|
-8--8--8--8--6--6--6--9--9--9--9--9-----------------------------|
6/8 -6--6--6--6--6--6--6--6--6--6--6--6-----------------------| X 2 (play whole
-6--6--6--6--6--6--6--6--6--6--6--6-----------------------------| thing about
----------------------------------------------------------------| 5 times then...
----------------------------------------------------------------|
-3-----5-----5--3-----3-----5--5--5--5--5--5--5-----------------|
-5-----5-----5--5-----5-----5--5--5--5--5--5--5--------------|
4/4 ----------------------------------------------------------|
-5-----5-----5--5-----5-----5--5--5--5--5--5--5-----------------|
----------------------------------------------------------------|
----------------------------------------------------------------|
-5-----5-----5--4-----4-----5--5--5--5--5--5--5-----------------|
-6-----6-----6--6-----6-----6--6--6--6--6--6--6--------------|
4/4 ----------------------------------------------------------|
-6-----6-----6--6-----6-----6--6--6--6--6--6--6-----------------|
----------------------------------------------------------------|
----------------------------------------------------------------|
-5--5--5--5--5--5--5--5-----5--5--5--5--5--5--5-----------------|
-6--6--6--6--7--7--7--6-----6--6--6--6--7--7--7--------------|
4/4 ----------------------------------------------------------|
-7--7--7--7--7--7--7--7-----7--7--7--7--7--7--7-----------------|
----------------------------------------------------------------|
That's all I could be bothered with. The rest is just open 4th and
5th strings while improvising over the top with a 3rd string melody/solo.
=======================================
Guitar Archive at Planet Telex
http://www.underworld.net/radiohead/
Max Kolombos
---------------------------------------





Ваше мнение



Капча