TRY THE BEST YOU CAN TO SRCATH THE BEAT ON THOSE CHORDS
EMAIL COMMENTS AND LAMENTS: [email protected]
DANY, CHICOUTIMI
note: Chords names are not proper,
they just there as indications

OPTIMISTIC - RADIOHEAD
TUNE DOWN E STRING TO D
D (Am)Bm D D Dm C D

1 2 3 4 1 2 3 4 1 2 3 4 1 2 3 4
E --------------|----------|----------|--------|
B 10----10---12-|-7----7---|-6----5---|-3------|
G --------------|----------|----------|-2------|
D 7-----10---12-|-7----4---|-3----5---|-0------|
A 0-----0----0--|-0----0---|-0----0---|-0------|
D 0-----0----0--|-0----0---|-0----0---|-0------|

D Am Bm D D Dm C D
1 2 3 4 1 2 3 4 1 2 3 4 1 2 3 4
E --------------|----------|----------|--------|
B 10----10---12-|-7----7---|-6----5---|-3------|
G --------------|----------|----------|-2------|
D 7-----10---12-|-7----4---|-3----5---|-0------|
A 0-----0----0--|-0----0---|-0----0---|-0------|
D 0-----0----0--|-0----0---|-0----0---|-0------|

Dm Am Em D
1 2 3 4 1 2 3 4
E ---------------------|-----------------------|
B ---------------------|-----------------------|
G -----7--77---5555555-|-----9--9--9---7777777-|
D ---------------------|-----------------------|
A -----8--88---7777777-|-----10-10-10--9999999-|
D -0-0-0--00---0000000-|-0-0-0--0--0---0000000-|

Dm Am Em D
1 2 3 4 1 2 3 4
E ---------------------|-----------------------|
B ---------------------|-----------------------|
G -----7--77---5555555-|-----9--9--9---(11)----|
D ---------------------|-----------------------|
A -----8--88---7777777-|-----10-10-10--9999999-|
D -0-0-0--00---0000000-|-0-0-0--0--0---0000000-|

Dm Am
Flies are buzzing around my head
Em D
Vultures circling my bed
Dm Am Em D
Picking up every last crumb
Dm Am
The big fish eat the little ones
Em D
The big fish eat the little ones
Dm Am Em D
Not my problem give me some
CHORUS
D (Am) Bm
You can try the best you can
D D
If you try the best you can
Dm C D
The best you can is not enough
This one's optimistic
This one went to market
This one just crawled out of the swamp
This one drops a payload
Fodder for the animals
Living on an animal farm
If you try the best you can
If you try the best you can
The best you can is good enough
(x2)
I'd really like to help you man
I'd really like to help you
If you try the best you can
If you try the best you can
The best you can is not enough
The best you can is not enough
The best you can is not enough

good song's ...never end
thank to noname of Version2 for lyrics





Ваше мнение



Капча