Radiohead
Nobody does it better
(Cover)
I think its on the painkiller bootleg. In the distorted verse, theres a few
in the chords, sure you can work them out yourself.
Intro:
e--------------7-----6--------6--5-----------4--------4--4--4---|
B--0--------------9-----8-----------7-----7--5--------5--4--3---|
G--1-----------------------9-----------8------------------------|
D--2------------------------------------------------------------|
A--2------------------------------------------------------------|
E--0------------------------------------------------------------|
Chorus: these chords are just strummed once each
e------------------------------2------0--------|
B--2----------1-----------------------------3--|
G--2----------2--------------------------------|
D--2----------2-------------2------------2-----|
A--0----------0--------------------------------| x2
E------------------------0---------------------|
e-------------2---------------------4----------2-------------|
B--2----------1----------4----------5----------2----------4--|
G--2----------2----------4----------6----------2----------4--|
D--2----------2----------6----------6----------4----------4--|
A--0----------0----------6----------4----------4----------2--|
E------------------------4---------------------2-------------|
Verse: Strum these chords
e--0-----------7-----6-------6--5-----------0--------4--------0-------2-----------------|
B--0--------------9----8-----------7-----7--0--------4--------2-------1-----------------|
G--1----------------------9-----------8-----1--------5--------2-------2-----------------|
D--2----------------------------------------2--------6--------2-------2-----------------|
A--2----------------------------------------2--------6--------0-------0-----------------|
E--0----------------------------------------0--------4----------------------------------|
e--0----------4----------------9-----------------8--------|
B--0----------4-------------9-----9-----------8-----8-----|
G--1----------5----------9-----------------8--------------|
D--2----------6-------------------------------------------|
A--2----------6-------------------------------------------|
E--0----------4-------------------------------------------|
e--0----------4-----------0----------2----------4----4----2---------0------------------|
B--0----------4-----------2----------1----------4----5----2----4----0---------5--4--3--|
G--1----------5-----------2----------2----------4----6----2----4----1------------------|
D--2----------6-----------2----------2----------6----6----4----4----2------------------|
A--2----------6-----------0----------0----------6----4----4----2----2------------------|
E--0----------4---------------------------------4---------2---------0------------------|
Chorus
Distorted verse
Distorted chorus: strum chords
e---------------------------------------------------|
B--2----------1-----------------7-------5------3----|
G--2----------2-----------------9b11----7b9----5b7--|
D--2----------2-------------------------------------|
A--0----------0-------------------------------------|
E------------------------0--------------------------|
build up
e-------------2---------------------4----------------------------------------------|
B--2----------1----------4----------5----------------------------------------------|
G--2----------2----------4----------6---------------------------------------8888---|
D--2----------2----------6----------6-----------------------------------99999999---|
A--0----------0----------6----------4----------000000002222222277777777799999999---|
E------------------------4---------------------222222224444444455555555577777777---|
_____________________________
Lastly is the distorted chorus with jonny soloing over the top. End on intro. If anyone
me to tab the last chorus with the solo and stuff just e-mail me.
awesome band.
[email protected]





Ваше мнение



Капча