KEY:
P - pull off
CHORDS USED:
Am - A C E
Amaj7 - A C# E G#
G - G B D
D - D F# A
Em - E G B
Emaj7 - E G# B D#
A - A C# E
INTRO:
Drums - 4 bars
Am Amaj7 Am Amaj7
Am Amaj7
G D G D
VERSE:
Am Amaj7 Am Amaj7
Am Amaj7
G D G D
rpt. VERSE TWICE
BRIDGE (whammy and scratching guitars enter)
Am Amaj7 Am Amaj7
Am Amaj7 Am Amaj7
Am Amaj7 Am Amaj7
Am Amaj7 Am Amaj7
G D G D
MIDDLE 8:
Em Emaj7 Em Emaj7
Em Emaj7
D A
END:
Am Amaj7 rpt. over

NB: towards the end, a clean guitar plays this twice...
(maquiladora-esq)
1 2 3 4 5 1 2 3 4 5
e -------0--------0--------0-----------0--------0--------0-----
B ----3--------3--------3-----3-----4--------4--------4-----4--
G -5--------5--------5-----------6--------6--------6-----------
D -------------------------------------------------------------
A -------------------------------------------------------------
E -------------------------------------------------------------
then...
1 2 3 4 5 1 2 3 4 5
e ----------------------------------------
B --P-----P-----P-------P-----P-----P-----
G -5-4---5-4---5-4-4---2-1---2-1---2-1-1--
D ----------------------------------------
A ----------------------------------------
E ----------------------------------------
1 2 3 4 5 1 2 3 (4) (5)
e --------------------------------
B --P-----P-----P-------P-----P---
G -5-4---5-4---5-4-4---7-6---7-6--
D ---------------------7-6---7-6--
A --------------------------------
E --------------------------------
transcribed by Ben Wilkinson [[email protected]] on 17/06/00, 1710 hours.





Ваше мнение



Капча