Molasses
by Radiohead
Tabbed by Don Fahey

Intro (Play 4 times)

E|----------------------------------------------
B|----------------------------------------------
G|----------------------------------------------
D|----------------------------------------------
A|-----2---2---2/7----7---7---7/5----5---5---5--
E|--3----3---3-----8----8---8-----6----6---6----

|----------|
|----------|
|----------|
|----------|
|----------|
|--5---5---|

Verse (Play above 8 times)

Bridge (Play twice)

| ---3---3----3---3-----3---3----3/5/3---- |
|.--(3)-(3)--(3)-(3)---(3)-(3)--(3/5/3)---.|
| ---------------------------------------- |
|.----------------------------------------.|
| ---------------------------------------- |
| ---------------------------------------- |

Verse 2

Outro (Play bridge 4 times)

I think that's it. If you have comments, questions, or corrections,
e-mail me at .





Ваше мнение



Капча