Artist: RADIOHEAD
Song: Lull
Tunning: EADG
Tabbed by Guillaume Tixhon
Verse (x7) Fill1
G:------|---------------|-------------------|-----------|---------------|
D:------|---------------|-8-7-5-------------|-----------|--------/12-10-|
A:-Rest-|-3--333-5-3-3--|-------8--8-7-5(5)-|-Verse(x2)-|-3--333--------|
E:------|---------------|-------------------|-----------|---------------|
G:-----------|---------------|-----------|-----------|-----------|--------------|
D:-----------|--------/12-10-|-----------|-----------|-----------|-------5--3---|
A:-Verse(x1)-|-3--333--------|-Verse(x1)-|-Fill1(x1)-|-Verse(x1)-|-3-333------5-|
E:-----------|---------------|-----------|-----------|-----------|--------------|
staccato (x4)
G:-----------------|------------------------------|
D:-----------------|------------------------------|
A:-3-3-3-3-3-3-3/-|-7--8-------------------------|
E:-----------------|-------7--8--8-7-5--8--7-8(8)-|





Ваше мнение



Капча