e: Sun, 3 May 1998 20:38:31 EDT
From: UFO2255
Subject: r/radiohead/lucky.crd
Song:Lucky
Artist:Radiohead
Album:Ok Computer
Transcribed by:Andrew Alesio
Verse 1:w/clean guitar
Em Am G Bm Em C G
Im on a roll, Im on a roll, this time, I feel my
Bm Em Em Am G Bm Em
luck could change. Kill me Sarah, kill me again, with
C G Bm Em
love, its gonna be a glorius day.
Chorus:w/slight overdrive and reverb
Pull me out of the aircrash
e:--------------------------------------------------
b:--------------------------------------------------
g:----------------*18------16------14------12-------
d:----------------------------------------------14--
a:--------------------------------------------------
E:--------------------------------------------------
Pull me out
e:--------------------------------------------------
b:--------------------------------------------------
g:---------12--------------*18------16------14------
d:---14----------14---------------------------------
a:--------------------------------------------------
E:--------------------------------------------------
Of the lake Cause Im your
e:--------------------------------------------------
b:----------------------------------------*20-------
g:---12------------------12h--14----12--------------
d:------------12h--14-------------------------------
a:--------------------------------------------------
E:--------------------------------------------------
Super hero
e:--------------------------------------------------
b:--------------------------------------------------
g:----*18-------16-------14-------12----------------
d:-------------------------------------14----12-----
a:-----------------------------------------------14-
E:--------------------------------------------------
C Bm7
We are standing on the edge.
Verse 2:w/clean guitar
Em Am G Bm Em C
The head of state has called for me by name. But
G Bm Em Em Am G Bm Em C
I don't have time for him. Its gonna be a glorius day I
G Bm Em
feel my luck could change.
Chorus:
Pull me out of the aircrash
e:--------------------------------------------------
b:--------------------------------------------------
g:----------------*18------16------14------12-------
d:----------------------------------------------14--
a:--------------------------------------------------
E:--------------------------------------------------
Pull me out
e:--------------------------------------------------
b:--------------------------------------------------
g:---------12--------------*18------16------14------
d:---14----------14---------------------------------
a:--------------------------------------------------
E:--------------------------------------------------
Of the lake Cause Im your
e:--------------------------------------------------
b:----------------------------------------*20-------
g:---12------------------12h--14----12--------------
d:------------12h--14-------------------------------
a:--------------------------------------------------
E:--------------------------------------------------
Super hero
e:--------------------------------------------------
b:--------------------------------------------------
g:----*18-------16-------14-------12----------------
d:-------------------------------------14----12-----
a:-----------------------------------------------14-
E:--------------------------------------------------
C Bm7
We are standing on the edge.
Thats it. I did't figure out the little part after the second chorus. After
that part though, play the chorus one last time.
Note:the asteric means to bend the note.





Ваше мнение



Капча