From: littleboodle [email protected]
#----------------------------------PLEASE NOTE---------------------------------#
#This file is the author's own work and represents their interpretation of the #
#song. You may only use this file for private study, scholarship, or research. #
#------------------------------------------------------------------------------#
#
Em Am G B
I'm on a roll, I'm on a roll
Em
This time
C G B Em
I feel my luck could change.
(repeat pattern)
Kill me Sarah
Kill me again with love.
It's gonna be a glorious day.
A Asus2 Em
Pull me out of the aircrash,
A Asus2 Em
Pull me out of the wreck,
A Asus2 Em
Cause I'm your superhero,
E:-------------------------------------
B:--14-14b16b14-12---------------------
G:-----------------14-12----12----12---
D:-----------------------14----14------
A:-------------------------------------
E:-------------------------------------
E:-----------------------15-14-12------
B:--14-14b16b14-12---------------------
G:-----------------14-12---------------
D:-------------------------------------
A:-------------------------------------
E:-------------------------------------
E:-------------------------------------
B:--14-14b16b14-12---------------------
G:-----------------14-12---------------
D:-----------------------14-12---------
A:-----------------------------14-12---
E:-------------------------------------
Leave you standing on the edge...
C, B7
(Repeat As First Verse)
The head of state has called for me by name.
But I dont have time for him
Its gonna be a glorius day
I feel my luck could change
(Middle Riff)
E:----0-0-0-0-0---0---0-0-----------0---
B:----7-7-7-7-7---5---3-1-----------0---
G:----0-0-0-0-0---0---0-0-----------0---
D:----x-x-x-x-x---x---x-x-----------2---
A:----9-9-9-9-9---7---5-3-----------2---
E:------------------------2-2-2-3-2-0---
E:--0-0-0-0-0---0---0-0-----------0---
B:--7-7-7-7-7---5---3-1-----------0---
G:--0-0-0-0-0---0---0-0-----------0---
D:--x-x-x-x-x---x---x-x-----------2---
A:--9-9-9-9-9---7---5-3-----------2---
E:----------------------2-2-2-3-2-0---
E:--0-0-0-0-0---0---0-0-----------0---0
B:--7-7-7-7-7---5---3-1-----------0---0
G:--0-0-0-0-0---0---0-0-----------0---0
D:--x-x-x-x-x---x---x-x-----------2---2
A:--9-9-9-9-9---7---5-3-----------2---2
E:----------------------2-2-2-3-2-0---0
E:---------------------------------------------
B:--3s5-5-5--3s5-5-5--3s5-5-5-5-5-5-5-5-8-5-8--
G:---------------------------------------------
D:---------------------------------------------
A:---------------------------------------------
E:---------------------------------------------
E:-------------------------------------
B:--14-14b16b14-12---------------------
G:-----------------14-12----12----12---
D:-----------------------14----14------
A:-------------------------------------
E:-------------------------------------
E:-----------------------15-14-12------
B:--14-14b16b14-12---------------------
G:-----------------14-12---------------
D:-------------------------------------
A:-------------------------------------
E:-------------------------------------
E:-------------------------------------
B:--14-14b16b14-12---------------------
G:-----------------14-12---------------
D:-----------------------14-12---------
A:-----------------------------14-12---
E:-------------------------------------:
Solo
E|----9--10--9----------------------9--10--9-----------15--14--12---
B|-------------12--10--8----8----8-----------12--10--8--------------
G|-----------------------9----9-------------------------------------
D|------------------------------------------------------------------
A|------------------------------------------------------------------
E|------------------------------------------------------------------
E|----9--10--9--------------------------------
B|-------------12--10--8---------------------
G|------------------------9------------------
D|---------------------------12--9-9---------
A|-------------------------------------------
E|-------------------------------------------





Ваше мнение



Капча