#----------------------------------PLEASE NOTE--------------------------------#
#This file is the author's own work and represents their interpretation of the#
#song. You may only use this file for private study, scholarship, or research.#
#-----------------------------------------------------------------------------#
#-- File created with Instab - http://www.pconline.com/~smcarey/instab.html --#
#-----------------------------------------------------------------------------#
Author/Artist: Radiohead
Title: Like Spinning Plates
Album: Amnesiac
Transcribed by: Dharshan
Email: [email protected]
INTRO / OUTRO
----------5--4--------------4--2-------------5--4------------4--4-------------|
------------------------------------------------------------------------------|
-----2-----------------2----------------2--------------2----------------------|
---2---2-------------2---2------------2---2----------2---2--------------------|
-0-----------------0----------------4--------------4--------------------------|
------------------------------------------------------------------------------|
X2 X2
-------------4|-------------2|-------------4|-------------2|-------------4|---|
---------4----|---------2----|---------0----|---------2----|---------0----|---|
-----5--------|-----3--------|-----1--------|-----3--------|-----1--------|---|
-----------6--|-----------4--|-----------2--|-----------4--|-----------2--|---|
---6---6------|---4---4------|---2---2------|---4---4------|---2---2------|---|
-4------------|-2------------|-0------------|-2------------|-0------------|---|
-------------4|-------------2|----------4--4|------------4|-------------2|----|
---------4----|---------2----|--------------|--------4----|---------2----|----|
-----5--------|-----3--------|-----2--------|----5--------|-----3--------|----|
-----------6--|-----------4--|---2---2------|----------6--|-----------4--|----|
---6---6------|---4---4------|-0------------|--6---6------|---4---4------|----|
-4------------|-2------------|--------------|4------------|-2------------|----|
X4
-------------4|-------------4|-------------2|----------4--4|-------------4|---|
---------0----|---------4----|---------2----|--------------|---------4----|---|
-----1--------|-----5--------|-----3--------|-----2--------|-----5--------|---|
-----------2--|-----------6--|-----------4--|---2---2------|-----------6--|---|
---2---2------|---6---6------|---4---4------|-0------------|---6---6------|---|
-0------------|-4------------|-2------------|--------------|-4------------|---|
----------5--4--------------4--2-------------5--4------------4--4-------------|
------------------------------------------------------------------------------|
-----2-----------------2----------------2--------------2----------------------|
---2---2-------------2---2------------2---2----------2---2--------------------|
-0-----------------0----------------4--------------4--------------------------|
------------------------------------------------------------------------------|
X4
|-------------4|
|---------4----|
|-----5--------|
|-----------6--|
|---6---6------|
|-4------------|
----------5--4--------------4--2-------------5--4------------4--4-------------|
------------------------------------------------------------------------------|
-----2-----------------2----------------2--------------2----------------------|
---2---2-------------2---2------------2---2----------2---2--------------------|
-0-----------------0----------------4--------------4--------------------------|
------------------------------------------------------------------------------|
X2 X2
-------------4|-------------2|-------------4|-------------2|-------------4|---|
---------4----|---------2----|---------0----|---------2----|---------0----|---|
-----5--------|-----3--------|-----1--------|-----3--------|-----1--------|---|
-----------6--|-----------4--|-----------2--|-----------4--|-----------2--|---|
---6---6------|---4---4------|---2---2------|---4---4------|---2---2------|---|
-4------------|-2------------|-0------------|-2------------|-0------------|---|
-------------4|-------------2|----------4--4|-------------4|-------------2|----|
---------4----|---------2----|--------------|---------4----|---------2----|----|
-----5--------|-----3--------|-----2--------|-----5--------|-----3--------|----|
-----------6--|-----------4--|---2---2------|-----------6--|-----------4--|----|
---6---6------|---4---4------|-0------------|---6---6------|---4---4------|----|
-4------------|-2------------|--------------|-4------------|-2------------|----|
-------------4|-------------2|-------------4|---------------------------------|
---------0----|---------2----|---------0----|---------------------------------|
-----1--------|-----3--------|-----1--------|---------------------------------|
-----------2--|-----------4--|-----------2--|---------------------------------|
---2---2------|---4---4------|---2---2------|---------------------------------|
-0------------|-2------------|-0------------|---------------------------------|
-------------4|-------------2|----------4--4|-------------4|-------------2|----|
---------4----|---------2----|--------------|---------4----|---------2----|----|
-----5--------|-----3--------|-----2--------|-----5--------|-----3--------|----|
-----------6--|-----------4--|---2---2------|-----------6--|-----------4--|----|
---6---6------|---4---4------|-0------------|---6---6------|---4---4------|----|
-4------------|-2------------|--------------|-4------------|-2------------|----|
-------------4|-------------2|-------------4|---------------------------------|
---------0----|---------2----|---------0----|---------------------------------|
-----1--------|-----3--------|-----1--------|---------------------------------|
-----------2--|-----------6--|-----------2--|---------------------------------|
---2---2------|---4---4------|---2---2------|---------------------------------|
-0------------|-2------------|-0------------|---------------------------------|
VERSE X2
-------------4|-------------2|----------4--4|-------------4|-------------2|----|
---------4----|---------2----|--------------|---------4----|---------2----|----|
-----5--------|-----3--------|-----2--------|-----5--------|-----3--------|----|
-----------6--|-----------4--|---2---2------|-----------6--|-----------4--|----|
---6---6------|---4---4------|-0------------|---6---6------|---4---4------|----|
-4------------|-2------------|--------------|-4------------|-2------------|----|
X4
-------------4|-------------4|-------------2|----------4--4|-------------4-----|
---------0----|---------4----|---------2----|--------------|---------4---------|
-----1--------|-----5--------|-----3--------|-----2--------|-----5-------------|
-----------2--|-----------6--|-----------4--|---2---2------|-----------6-------|
---2---2------|---6---6------|---4---4------|-0------------|---6---6-----------|
-0------------|-4------------|-2------------|--------------|-4-----------------|
CHORUS X4
----------5--4--------------4--2-------------5--4------------4--4-------------|
------------------------------------------------------------------------------|
-----2-----------------2----------------2--------------2----------------------|
---2---2-------------2---2------------2---2----------2---2--------------------|
-0-----------------0----------------4--------------4--------------------------|
------------------------------------------------------------------------------|
X4
|-------------4|
|---------4----|
|-----5--------|
|-----------6--|
|---6---6------|
|-4------------|





Ваше мнение



Капча