#-----------------------------PLEASE NOTE-------------------------------------#
#This OLGA file is the author's own work and represents their interpretation #
#of the song. You may only use this file for private study, scholarship, or #
#research. Remember to view this file in Courier, or some other monospaced #
#font. See http://www.olga.net/faq/ for more information. #
#-----------------------------------------------------------------------------#

Subject: r/radiohead/lewis.tab

lewis (mistreated) by Radiohead

EADGBe
CHORDS: G5 355xxx
G#5 466xxx
A5 577xxx
F#5 244xxx
C x3555x

Where x's appear as chord names in tab, strum muted strings with
reckless abandon!!!

-3-3-3-3-3-3-3-3-|
-3-3-3-3-3-3-3-3-|
-0-0-0-0-0-0-0-0-| RIFF A
-0-0-0-0-0-0-2-0-|
-2-2-2-2-2-0-3-0-|
-3-3-3-3-3-0---0-|

Play RIFF A 6 times.

G5 G#5 A5 F#5
Bummed out again...
G5 G#5 A5 F#5

--------3-3---3-3|--3-3---3-3|
--------3-3---3-3|--3-3---3-3|
--------0-0---0-0|--0-0---0-0| RIFF B
-----------------|--------0-0|
------3-----2----|0-------2-2|
-----------------|------3-3-3|
Don't do it...

Repeat RIFF A 4 times.

G5 G#5 A5 F#5
Can't seem to fit...
G5 G#5 A5 F#5

Play RIFF B over the line
Don't do it...

Repeat RIFF A twice.
Guitar rests for 2 measures for bass part..

C x x C x x C x x C x x C
Lewis..save yourself... (RIFF C)^
C RIFF C

Repeat RIFF A 4 times.

G5 G#5 A5 F#5
We never noticed...
G5 G#5 A5 F#5

with RIFF B
it's the best...

with RIFF A (2 times)
..lived.

Repeat the part where RIFF C was introduced

Ad-lib vocals until the end.

--------0h3p0-------------3----|--------0h3p0-------------2h3p2-----|
------3-------3---------3---3--|------3-------3-------3---------3---|
----0-----------0-----0-------0|----2-----------2---2---2---------2-|
--0-----------------0----------|--0---------------0-----------------|
------------------2------------|0-----------------------------------|
3------------------------------|------------------------------------|
(Repeat 4 times)

Repeat RIFF A twice.

x x x x C C x x x x C C x x x x C C x x x x C C (RIFF D)

Alternate between Riffs A and D until end.

End on a G chord.





Ваше мнение



Капча