That's a song of Amnesiac Album.
The next tab isn't exactly but is very similar to the original.
I want you know...
E------------------------------------------------------------------------------6-------|
B-----6--------5----------6-----------6-----------6-----------5------------------6-----|
G----7-7-----5--5-------7--7--------7---7-------7---7-----------5-----------------7----|
D---7---7---7----7-----8----8-----8------8----8------8-------7----7-----------8-----8--|
A--5-----5---------7-8--------8--8--------8-8---------8----7--------7-----8-8-------8--|
E----------5-------5-6-----------6----------6------------5------------5/6-6------------|
E--3---3----3-3-3-3---3---3----3-3-3-3
B--4--4-4---3-3-3-3/4-4--4-4---3-3-3-3
G--5-5---5--5-5-5-5---5-5---5--5-5-5-5
D--5------5-5-5-5-5---5------5-5-5-5-5
A--3--------3-3-3-3------------3-3-3-3
E--3--------3-3-3-3------------3-3-3-3

o0o
[email protected]





Ваше мнение



Капча