Radiohead
Just
The Bends (1995)
Jonny’s Guitar Part (Complete)
e-----------------------------------------------------10-11---13-14---16-17--\-
B------------------------------------------------------------------------------
G--x-x-x-x----5--5--7--8---10-11---13--14----16--17---7--8----10-11---13-14--\-
D--x-x-x-x-x2------------------------------------------------------------------
A--x-x-x-x----3--3--5--6---8--9----11--12----14--15----------------------------
E------------------------------------------------------------------------------
Verse 1
e------------------------------------------------------------------------------
B------------------------------------------------------------------------------
G-----------------------14--15--17--16--17--19-----------14--15--17--7--8—10---
D-----------------------15----------17-------------------15----------8---------
A------------------------------------------------------------------------------
E-----------------------13----------15-------------------13----------6---------
.5 .5
e------------------------------------------------------------------------------
B------------------------------------------------------------------------------
G----5--7-7/----5-------5--7--7/-----5----4------5------8/---------------------
D--7----------7------6------------6---------5------4---------------------------
A---------------------------------------------5------4-------------------------
E------------------------------------------------------------------------------
Chorus:
e-----------------0------0----------------0------------------------------------
B-------------------------------------------1----------------------------------
G--9---9---\---------3-----------------------------x2------------
D--10--10--\--4------------3--3---3----3---------------------------------------
A--10--10--\--4------------3--3---3----3---------------------------------------
E--8---8---\--2------------1--1---1----1---------------------------------------
e-----------------------------------------------------10-11---13-14---16-17--\-
B------------------------------------------------------------------------------
G--x-x-x-x----5--5--7--8---10-11---13--14----16--17---7--8----10-11---13-14--\-
D--x-x-x-x-x2------------------------------------------------------------------
A--x-x-x-x----3--3--5--6---8--9----11--12----14--15----------------------------
E------------------------------------------------------------------------------
Verse 2
e-----0------4-------------------------------------------------------------------
B-----1------4-------------------------------------------------------------------
G-----2------5------------14--15--17--16--17--19-----------14--15--17--7--8—10---
D-----2------6------------15----------17-------------------15----------8---------
A-----0------6-------------------------------------------------------------------
E-----x------4------------13----------15-------------------13----------6---------
e------------------------------------------------------------------------------
B------------------------------------------------------------------------------
G----5--7-7/----5-------5--7--7/-----5----4------5------8/---------------------
D--7----------7------6------------6---------5------4---------------------------
A---------------------------------------------5------4-------------------------
E------------------------------------------------------------------------------
Chorus 2
e-----------------0------0----------------0------------------------------------
B-------------------------------------------1----------------------------------
G--9---9---\---------3-----------------------------x2--------------------------
D--10--10--\--4------------3--3---3----3---------------------------------------
A--10--10--\--4------------3--3---3----3---------------------------------------
E--8---8---\--2------------1--1---1----1---------------------------------------
e-----------------------------------------------------10-11---13-14---16-17--\-
B------------------------------------------------------------------------------
G--x-x-x-x----5--5--7--8---10-11---13--14----16--17---7--8----10-11---13-14--\-
D--x-x-x-x-x2------------------------------------------------------------------
A--x-x-x-x----3--3--5--6---8--9----11--12----14--15----------------------------
E------------------------------------------------------------------------------
Bridge
e------------------------------------------------------------------------------
B--5----7--8---10--11-------12----10---8----6---5------------------------------
G------------------13/------14/---12/--10/--8/--7/-----------------------------
D------------------------------------------------------------------------------
A------------------------------------------------------------------------------
E------------------------------------------------------------------------------
e------------------------------------------------------------------------------
B-17---17—-17---15---13---13---13---x----16---16—-16----15---13---13---13------
G------------------------------------------------------------------------------
D-14---14—-14---12---10---10---10---x----13---13—-13----12—--10---10---10------
A------------------------------------------------------------------------------
E------------------------------------------------------------------------------
e-----------------------------------------------------------------------------
B-11-/-13—-10---10---10-------13-/-15—-13—-13--13-----------------------------
G-----------------------------------------------------------------------------
D-8--/-10—-8----8----8--------10-/-12—-10—-10--10-----------------------------
A-----------------------------------------------------------------------------
E-----------------------------------------------------------------------------
e-----------------------------------------------------------------------------
B-17---17—-17---15---13---13---13-x x-16---16---16---15---13---13---13--------
G-----------------------------------------------------------------------------
D-14---14--14—-12----10---10---10-x x-13---13---13---12---10---10---10--------
E-----------------------------------------------------------------------------
A-----------------------------------------------------------------------------
Pre Chorus
e------------------------------------------------------------------------------
B------------------------------------------------------------------------------
G-4-4-4-4-3-3-3-3-2------------------------------------------------------------
D-5-5-5-5-4-4-4-4-3------------------------------------------------------------
A-5-5-5-5-4-4-4-4-3------------------------------------------------------------
E-3-3-3-3-2-2-2-2-1------------------------------------------------------------
e------------------------------------------------------------------------------
B--12-11-10--------------------------------------------------------------------
G-----------12/--11-10-------10-12-10--10-12-10-------x2-----------------------
D----------------------10h12---------------------------------------------------
A------------------------------------------------------------------------------
E------------------------------------------------------------------------------

Chorus 3
e-----------------0------0----------------0------------------------------------
B-------------------------------------------1----------------------------------
G--9---9---\---------3-----------------------------x2--------------------------
D--10--10--\--4------------3--3---3----3---------------------------------------
A--10--10--\--4------------3--3---3----3---------------------------------------
E--8---8---\--2------------1--1---1----1---------------------------------------
e-----------------------------------------------------10-11---13-14---16-17--\-
B------------------------------------------------------------------------------
G--x-x-x-x----5--5--7--8---10-11---13--14----16--17---7--8----10-11---13-14--\-
D--x-x-x-x-x2------------------------------------------------------------------
A--x-x-x-x----3--3--5--6---8--9----11--12----14--15----------------------------
E------------------------------------------------------------------------------
e-----------------------------------------------------------------------------
B-----------------------------------------------------------------------------
G--x--x--x--8------8~----x-x----8------8--------------------------------------
D--x-----x--8------8-----x-x----8------8--------------------------------------
A-----------7--x-x-7----------x-7--x-x-7--------------------------------------
E-----------8------8------------8------8--------------------------------------
OUTRO SOLO - guitar 2 (w/ distortion)
-----------------------------------------------------------------------------
-----------------------------------------------------------------------------
--------------.------------------.------------------.------------------------
-(10b)13r10-8-10---10-10b13r10-8-10---10-10b13r10-8-10-----------------------
-----------------------------------------------------------------------------
-----------------------------------------------------------------------------
-------------------8b10r8-6--------------------------------------------------
----------------------------10b11r10-8---------------------------------------
---------------.-----------------------8-------------------------------------
-10-10b13r10-8-10------------------------10----------------------------------
-----------------------------------------------------------------------------
-----------------------------------------------------------------------------
-----------------------------------------------------------------------------
-----------------------------------------------------------------------------
--------------.------------------.------------------.------------------------
-(10b)13r10-8-10---10-10b13r10-8-10---10-10b13r10-8-10-----------------------
-----------------------------------------------------------------------------
-----------------------------------------------------------------------------
-----------------------------------------------------------------------------
-----------------------------------------------------------------------------
---------------.---10b11-11-11-11-11-11-11-11-11-11--------------------------
-10-10b13r10-8-10------------------------------------------------------------
-----------------------------------------------------------------------------
-----------------------------------------------------------------------------
-----------------------------------------------------------------------------
-----------------------------------------------------------------------------
--------------.------------------.------------------.------------------------
-(10b)13r10-8-10---10-10b13r10-8-10---10-10b13r10-8-10-----------------------
-----------------------------------------------------------------------------
-----------------------------------------------------------------------------
-------------------8b10r8-6--------------------------------------------------
----------------------------10b11r10-8---------------------------------------
---------------.-----------------------8-------------------------------------
-10-10b13r10-8-10------------------------10----------------------------------
-----------------------------------------------------------------------------
-----------------------------------------------------------------------------
-----------------------------------------------------------------------------
-----------------------------------------------------------------------------
--------------.------------------.-------------------------------------------
-(10b)13r10-8-10---10-10b13r10-8-10---10-10b13r10-8b10\----------------------
-----------------------------------------------------------------------------
-----------------------------------------------------------------------------
-----------------------------------------------------------------------------





Ваше мнение



Капча